Song name
# A B C D E F G H I J K L M N O P Q R S T U V W X Y Z

Paramore - Miracle tab

Miracle Outro (live) by Paramore


e|-11---11--10--10--8-8--6--3----|
b|-------------------8-----------|
g|---12-------12-----------------|
d|-------------------------------|
a|-------------------------------|
e|-------------------------------|

e|-11---11--10--10--8-8--6--13---|
b|-------------------8-----------|
g|---12-------12-----------------|
d|-------------------------------|
a|-------------------------------|
e|-------------------------------|

Standard tuning. This is pretty much it throughout the song, note the key difference 
the two bars though (the '3' and '13).

Lyrics:

I asked for love
I asked for mercy
I asked for patience
But you’re already all of these things

I asked for love
I asked for mercy
I asked for patience
But you’re already all of these things

I asked for love
I asked for mercy
I asked for patience
But you’re already all of these things

Oh, you are
Oh you are, you are

I asked for love
I asked for mercy
I asked for patience
But you’re already all of these things

I asked for love
I asked for mercy
I asked for shelter
And I begged you for the rain

I asked for love
I asked for mercy
I asked for patience
But you’re already all of these things

Oh, I asked for love
I asked for mercy
I begged you for shelter
And then I begged you for the hard, hard rain
Oh I thank you for the rain

Oh you already are, you already are, you already are, oh

If I knew what I needed
If I knew what was good for me, I
I’d be down, on my knees, on my knees
Begging please, please, please
Let your light shine bright inside of me
Inside of me, inside of me, inside of me, inside of me

But you’re already all of these things
I could ask the world of you, but you’re already all of these things
I could ask, I could ask, the world
But you’re already of these things
Ooh
Oh, oh you are the rain
Oh, oh, oh
you are
Tap to rate this tab
 
# A B C D E F G H I J K L M N O P Q R S T U V W X Y Z