Song name
# A B C D E F G H I J K L M N O P Q R S T U V W X Y Z

Paramore - Pressure tab

Pressure - Paramore, tabbed by me have been looking thorugh some live footage and this 
what was made out of it! enjoy

=INTRO=

Intro (Rythm Guitar)
e|-------------------------------------------------------------|
B|-----------------------------7-7-7-7-7-7---------------------|
G|---7-7-7-7-7-7--7-7-7-7-7-7--7-7-7-7-7-7----7-7-7-7-7-7------|
D|---x-x-x-x-x-x--0-0-0-0-0-0--7-7-7-7-7-7----0-0-0-0-0-0------|
A|---9-9-9-9-9-9--0-0-0-0-0-0--5-5-5-5-5-5----0-0-0-0-0-0-(2x)-|
D|---9-9-9-9-9-9--0-0-0-0-0-0--5-5-5-5-5-5----0-0-0-0-0-0------|

Intro (Lead Guitar)
e|-------------------------------------------------------------------------|
B|-------------------------------------------------------------------------|
G|----11-11-11/9-9-9-14-14-14/11-11-11---11-11-11/9-9-9--6-6-6\7-7-7-------|
D|-----x--x--x-x-x-x--x-x--x--x--x---x---x--x--x--x-x-x--x-x-x-x-x-x-------|
A|-----9--9-9/7-7-7-12-12-12/9--9---9---9--9--9/-7-7-7--4-4-4\5-5-5-2x----|
D|-------------------------------------------------------------------------|

=VERSE=

Verse part 1 (Rhythm Guitar)
e|-------------------------------------|
B|-------------------------------------|
G|-------------------------------------|
D|----9-9--9/5-5-5/0-0-0--4-4--4\------|
A|----9-9--9/5-5-5/0-0-0--4-4--4\-2x---|
D|----9-9--9/5-5-5/0-0-0--4-4--4\------|
      . .    . .   . .    . .

Verse part 2 (Rythm Guitar)

e|---------------------------------------------------------|
B|---------------------------------------------------------|
G|---------------------------------------------------------|
D|-999-99/555-55-000-00-444-44\999-99/555-55-000-00-444-44-|
A|-999-99/555-55-000-00-444-44\999-99/555-55-000-00-444-44-|
D|-999-99/555-55-000-00-444-44\999-99/555-55-000-00-444-44-|


Verse part 2 (Lead Guitar, comes in when rythm start playing part 2 of verse)
e|-----------------------------------------------------5-------|
B|--7-7-7-7-7-5-5-5-5-5--5-5-5-5-5--5-5------------------------|
G|--7-7-7-7-7-7-7-7-7-7--7-7-7-7-7--6-6--6h7---7(very subtle)--|
D|-------------------------------------------------------------|
A|-------------------------------------------------------------|
D|-------------------------------------------------------------|

=CHORUS=

Chorus (Rythm Guitar)

e|-------------------------------------------------------------------------|
B|-------------------------------------------------------------------------|
G|---------------------------------^11^------------------------------------|
D|-77777777-77777777-77777777-7777--x---77777777-77777777-77777777-7777----|
A|-55555555-00000000-44444444-5555-^9^--55555555-00000000-44444444-7777-2x-|
D|-55555555-00000000-44444444-5555------55555555-00000000-44444444-5555----|

Chorus (Lead Guitar)

e|----------17------------------17----------------------17----------|
B|-----15------15--------15---------15---15------14----------14-----|
G|--16----16------16--14-----14--------14-----14----14----14----14--|Ending 1
D|------------------------------------------------------------------|
A|------------------------------------------------------------------|
D|------------------------------------------------------------------|

e|------------17------------------17--------------------17----------|
B|------15------15--------15--------15----15------14----------14----|
G|---16----16------16--14----14--------14------14----14----14----14-|Ending 2
D|------------------------------------------------------------------|
A|------------------------------------------------------------------|
D|------------------------------------------------------------------|

Endings (Lead Guitar)
e|------------^14^-|-----------17-----------|
B|-----15----------|----15---------15----15-|
G|-16------16------|-16-----16--------16----|
D| 1st ending------|---- 2nd ending---------|
A|-----------------|------------------------|
D|-----------------|------------------------|


=BRIDGE=
Clean Bridge (Lead Guitar)
(The rythym guitar is the same chords as it
is in the verse with a different strumming pattern)

e|--------9----------------9-----------------9----------------9---------|
B|---10-----10---10---10-----10---10----10-----10---10---10-----10---10-|
G|------7------7---------7------7----------7------7---------7------7----|
D|-9----------------9-----------------0---------------------------------| X4
A|-----------------------------------------------------9----------------|
D|----------------------------------------------------------------------|

e|--------9----------------9----------|
B|---10-----10---10---10-----10---10--|
G|------7------7---------7------7-----|
D|-9----------------9-----------------|
A|------------------------------------|
D|------------------------------------|

The Order:
Intro
Verse
Verse2
Chorus
Verse
Verse2
Chorus
Intro
Bridge
Chorus

| \ slide up
| /  slide down
| h  hammer on
| ^  bend note
| .  palm Mute
Tap to rate this tab
# A B C D E F G H I J K L M N O P Q R S T U V W X Y Z