Song name
# A B C D E F G H I J K L M N O P Q R S T U V W X Y Z

Paramore - The Only Exception tab

Standard Tuning E,a,d,g,b,e

Intro:
Guitar I:
       B    F#/A  E
e||-xxxxxxx-0000-000-----|
b||-4444444-2222-000-----|
g||-4444444-2222-111-----|2x
d||-4444444-2222-222-----|
a||-2222222-0000-222-----|
E||-xxxxxxx-2222-000-----|

Guitar II:

e||---------------------|
b||---16----14---12-----|
g||---16----14---13-----|
d||---16----14---14-----|
a||---------------------|
E||---------------------|

e||------------14-------|
b||---16----14----12----|
g||---16----14----13----|
d||---16----14----14----|
a||---------------------|
E||---------------------|


verse:

Guitar I:
       B    F#/A  E
e||-xxxxxxx-0000-000-----|
b||-4444444-2222-000-----|
g||-4444444-2222-111-----|2x
d||-4444444-2222-222-----|
a||-2222222-0000-222-----|
E||-xxxxxxx-2222-000-----|

Guitar II:
                                B    A/F#  E
e||---------------------|  |-xxxxxxx-0000-000-----||
b||---16----14---12-----|  |-4444444-2222-000-----||
g||---16----14---13-----|2x|-4444444-2222-111-----||
d||---16----14---14-----|  |-4444444-2222-222-----||
a||---------------------|  |-2222222-0000-222-----||
E||---------------------|  |-xxxxxxx-2222-000-----||

Chorus:

Guitar I:
       B    F#/A  E
e||-xxxxxxx-0000-000-----|
b||-4444444-2222-000-----|
g||-4444444-2222-111-----|2x
d||-4444444-2222-222-----|
a||-2222222-0000-222-----|
E||-xxxxxxx-2222-000-----|

Guitar II:

e||-------------------------------------------------------------------------|
b||-12-12-12-12-12-12-12-12-12-12-12-12--14-14-14-14-14--16-16-16-16--------|
g||-------------------------------------------------------------------------|
d||-------------------------------------------------------------------------|
a||-------------------------------------------------------------------------|
E||-------------------------------------------------------------------------|

Before verse 2:
Guitar I:
       B    F#/A  E
e||-xxxxxxx-0000-000-----|
b||-4444444-2222-000-----|
g||-4444444-2222-111-----|2x
d||-4444444-2222-222-----|
a||-2222222-0000-222-----|
E||-xxxxxxx-2222-000-----|

Guitar II:

e||---------------------|
b||--16-----------------|
g||--16-----------------|
d||--16-----------------|
a||---------------------|
E||---------------------|

Verse 2:
Guitar I:
       B    F#/A  E
e||-xxxxxxx-0000-000-----|
b||-4444444-2222-000-----|
g||-4444444-2222-111-----|4x
d||-4444444-2222-222-----|
a||-2222222-0000-222-----|
E||-xxxxxxx-2222-000-----|

Guitar II:
e||---------------------|
b||---16----14---12-----|
g||---16----14---13-----|4x
d||---16----14---14-----|
a||---------------------|
E||---------------------|

Back to Chorus:


Bridge:
Guitar I:
       C#m     B    F#               C#m      B    F#     E
e||-4444444--22222------------|  |-4444444--22222--------000000---|
b||-5555555--44444------------|  |-5555555--44444--------000000---|
g||-6666666--44444------------|3x|-6666666--44444--------111111---|
d||-6666666--44444--4444------|  |-6666666--44444--4444--222222---|
a||-4444444--22222--4444------|  |-4444444--22222--4444--222222---|
E||-----------------2222------|  |-----------------2222--000000---|

Guitar II:

e||-16-14-----14---16-14-------------|
b||------11,12----------11-12--------|
g||--------------------------11------|
d||----------------------------------|
a||----------------------------------|
E||----------------------------------|

e||-----------------------------------|
b||-----------------------------------|
g||-999-888-666-8-444-666-3333--------|
d||-----------------------------------|
a||-----------------------------------|
E||-----------------------------------|


e||-------------------------------0---|
b||---------777-------------------5---|
g||-999-888----888--444-666-3333--4---|
d||-----------------------------------|
a||-----------------------------------|
E||-----------------------------------|


Chorus:
Guitar I:
       B    F#/A  E
e||-xxxxxxx-0000-000-----|
b||-4444444-2222-000-----|
g||-4444444-2222-111-----|2x
d||-4444444-2222-222-----|
a||-2222222-0000-222-----|
E||-xxxxxxx-2222-000-----|

Guitar II:
e||---------------------|
b||---16----14---12-----|2x
g||---16----14---13-----|
d||---16----14---14-----|
a||---------------------|
E||---------------------|

e||-------------------------------------------------------------------------|
b||-12-12-12-12-12-12-12-12-12-12-12-12--14-14-14-14-14--16-16-16-16--------|
g||-------------------------------------------------------------------------|
d||-------------------------------------------------------------------------|
a||-------------------------------------------------------------------------|
E||-------------------------------------------------------------------------|


together w/
Guitar I,II & bass.

Guitar I:
       B    F#/A  E
e||-xxxxxxx-0000-000-----|
b||-4444444-2222-000-----|
g||-4444444-2222-111-----|
d||-4444444-2222-222-----|
a||-2222222-0000-222-----|
E||-xxxxxxx-2222-000-----|

Guitar II:
e||-----------1414--------14-------------------------------|
b||---16161616------141414---12121212121212-141414-161616--|
g||---16161616------141414---131312------------------------|
d||---16161616------141414---141414------------------------|
a||--------------------------------------------------------|
E||--------------------------------------------------------|

and I'm on my way to believing...
    Bsus   E
e||-000---0000-----------------|
b||-555---0000-----------------|2x
g||-444---1111-----------------|
d||-444---2222-----------------|
a||-222---2222-----------------|
E||-xxx---0000-----------------|

Guitar II:
e||---------------------|
b||---------------------|
g||---8989898989--------|
d||---------------------|
a||---------------------|
E||---------------------|


END.


HOPE IT HELPS.. not 100% sure
Tap to rate this tab
# A B C D E F G H I J K L M N O P Q R S T U V W X Y Z