Song name
# A B C D E F G H I J K L M N O P Q R S T U V W X Y Z

Paramore - Decoy tab

Artist: Paramore
Song: Decoy
Album: The Final Riot

Intro x4

e|-----------------------------------------------| 
B|-----------------------------------------------|
G|---------10-10---------------------------------|
D|--5--8-8-10-10---3-3-5-5-10-10-----------------| 
A|--5--8-8-8--8----3-3-5-5-10-10-----------------|
D|--5--8-8---------3-3-5-5-8--8------------------|

Verse x4

e|--------10-----10--------8----8----------------|
B|-----------------------------------------------|
G|-----10----10---------10---10------------------|
D|--12---------------12--------------------------|
A|-----------------------------------------------|
D|-----------------------------------------------|

Pre-chorus x1

e|-----------------------------------------------|
B|-----------------------------------------------|
G|-----------------------------------------------|
D|-12-10-15-13-12-8-5------------randomly strum--| (This is the vocal line
A|-------------------------------muted strings---|  Hayley uses, it sounds
D|-----------------------------------------------|  good to play)

Chorus 

e|-----------------------------------------------|
B|-----------------------------------------------|
G|-----------------------------------------------|
D|--5--------1------3----------------------------|
A|--5--x16---1--x8--3--x8------------------------|
D|--5--------1------3----------------------------|

Intro 

Verse

Pre-chorus

Chorus

Bridge x3

e|---10----10----10------------------------------|
B|-----------------------------------------------|
G|------10---10----10------x2--------------------|
D|-------12---12---------------------------------| 
A|-----------------------------------------------|
D|-----------------------------------------------|

e|-----------------------------------------------|
B|------11----11-----11-10-----------------------|
G|----10--10----10--------10---------------------|
D|--12------12--------------10-------------------|
A|-----------------------------------------------|
D|-----------------------------------------------|

Chorus


END


im pretty sure this is all correct,

Thanks (:
Tap to rate this tab
 
# A B C D E F G H I J K L M N O P Q R S T U V W X Y Z