Paramore - Decode tab

-------------------------------------------------------------------------------
			     DECODE - Paramore
-------------------------------------------------------------------------------
Tabbed by:djoakey
Email:djoakey@virginmedia.com

Tuning: Drop C# (C#, G#, C#, F#, A#, D#)


This is my first tab and ive figured this out completely by ear.
All the other tabs i had read for this song had been wrong or didnt give the lead guitar 
were in the wrong tuning
soooo, i decided to post one which is 100% correct
well, im pretty sure it is:P
please email me regarding any corrections;D

Now this particular song is a bonus track of Paramore's latest album, Brand New Eyes, 
has made its name as the
soundtrack for the film Twilight.
It's relatively easy to play, it just gets more complicated when you start adding in the effects
But the effects are optional:)
Ive tabbed lead and rhythm guitar parts which are recorded both by Josh Farro on the record.

Lead Guitar:

Intro:

w/ Delay+Chorus

D#|-------------------------------10--------|
A#|-12--------12--------12------------------|
F#|------11--------11--------11--------11---|
C#|----0----0----0----0----0----0----0----0-|    x2
G#|-----------------------------------------|
C#|-----------------------------------------|

D#|-------------------------------14---------------------------------12-|
A#|-12--------12--------12------------------12--------12--------12------|
F#|------14--------14--------14--------14--------14--------14-----------|
C#|----0----0----0----0----0----0----0----0----0----0----0----0----0----|
G#|---------------------------------------------------------------------|
C#|---------------------------------------------------------------------|

repeat this whole sequence 1 time for the intro
repeat it another 2 times for the verse

Pre-Chorus:

w/ Delay+Chorus

D#|-------------------------------10--------|
A#|-12--------12--------12------------------|
F#|------11--------11--------11--------11---|
C#|-----------------------------------------|    x2
G#|-----------------------------------------|
C#|-----------------------------------------|

D#|-------------------------------14---------------------------------12-|
A#|-12--------12--------12------------------12--------12--------12------|
F#|------14--------14--------14--------14--------14--------14-----------|
C#|---------------------------------------------------------------------|
G#|---------------------------------------------------------------------|
C#|---------------------------------------------------------------------|

Chorus:

w/ Delay+Chorus or w/ Overdrive

D#|-------------------------------10--------|
A#|-12--------12--------12------------------|
F#|------11--------11--------11--------11---|
C#|-----------------------------------------|    x2
G#|-----------------------------------------|
C#|-----------------------------------------|

D#|-------------------------------14--------12-let-ring--|
A#|-12--------12--------12-------------------------------|
F#|------14--------14--------14--------14----------------|
C#|------------------------------------------------------|
G#|------------------------------------------------------|
C#|------------------------------------------------------|

repeat this twice whole thing twice

Post-Chorus:

w/ Delay+Chorus

D#|-----------------------------------------|
A#|-12--------12--------12--------12--------|
F#|------11--------11--------11--------11---|
C#|----0----0----0----0----0----0----0----0-|
G#|-----------------------------------------|
C#|-----------------------------------------|

D#|----------------------------------|
A#|-10-------10-------10-------10-10-|
F#|------6--------6--------6------6--|
C#|----0---0----0---0----0---0----0--|
G#|----------------------------------|
C#|----------------------------------|

REPEAT VERSE
REPEAT PRE-CHORUS
REPEAT CHORUS

Solo:

w/ Distortion+Whammy pedal set to 1 octave(optional, it still sounds great with just distortion:)

D#|---------------------------14----------------------------14---------------------------------|
A#|-14b15br14-12-14b15br14-12----12-14b15br14-12-14b15br-12----12-14b15br14-12-12\10----2-3/-5-|
F#|--------------------------------------------------------------------------------------------|
C#|--------------------------------------------------------------------------------------------|
G#|--------------------------------------------------------------------------------------------|
C#|--------------------------------------------------------------------------------------------|

D#|---------------------------14----------------------------14----------------17-19----------|
A#|-14b15br14-12-14b15br14-12----12-14b15br14-12-14b15br-12----12-14-14/-15---------15-14-12-|
F#|------------------------------------------------------------------------------------------|
C#|------------------------------------------------------------------------------------------|
G#|------------------------------------------------------------------------------------------|
C#|------------------------------------------------------------------------------------------|

Play nothing in the middle eight

REPEAT CHORUS

Outro:

w/ Distortion

D#|----------14-------------|
A#|-15-14-12----12-15-17----|
F#|----------------------14-|
C#|-------------------------| x4
G#|-------------------------|
C#|-------------------------|

End on:

D#|--------------|
A#|-14-15-15-15--|let ring
F#|--------------|
C#|--------------|
G#|--------------|
C#|--------------|

Rhythm Guitar:

all rhythm guitar w/ Distortion except middle eight w/ Chorus+Delay
Verses:
    Palm mute all these chords.
D#|-------------------------|
A#|-------------------------|
F#|-------------------------|
C#|-5-----2-----9-----4-----| x2
G#|-5-x16-2-x16-9-x16-4-x16-|
C#|-5-----2-----9-----4-----|

Pre-Chorus:
      Let ring.
D#|-------------------------|
A#|-------------------------|
F#|-------------------6-----|
C#|-5-----2-----9-----7-----|
G#|-5-----2-----9-----4-x16-|
C#|-5-----2-----9-----4-----|

Chorus:
 Listen to the song for strumming pattern.
D#|---------------------------|
A#|---------------------------|
F#|-------------------6-------|
C#|-5-----2-----9-----7-------| x2
G#|-5-x16-2-x16-9-x16-4-x16---|
C#|-5-----2-----9-----4-------|

Post-Chorus:

D#|-------------------------|
A#|-------------------------|
F#|-------------------6-----|
C#|-------------------7-----|
G#|-------------------4-----|
C#|-------------------4-----|

REPEAT VERSE
REPEAT PRE-CHORUS
REPEAT CHORUS
REPEAT CHORUS AGAIN FOR SOLO

Middle Eight:
   Let Ring.
D#|-------------------------|
A#|-------------------------|
F#|-------------------6-----|
C#|-5-----2-----9-----7-----| x2
G#|-5-----2-----9-----4-----|
C#|-5-----2-----9-----4-----|

REPEAT CHORUS

Outro:

D#|----------------------|
A#|----------------------|
F#|----------------------|
C#|-5-7\-2-9-4-5-9\-4--7-|x2
G#|-5-7\-2-9-4-5-9\-4--7-|
C#|-5-7\-2-9-4-5-9\-4--7-|

End on:

D#|-------|
A#|-------|
F#|-------|
C#|-2-2-2-|
G#|-2-2-2-|let ring
C#|-2-2-2-|

Glad i could help,
from dan:)
************************************

| /   slide up
| \   slide down
| h   hammer-on
| p   pull-off
| ~   vibrato
| +   harmonic
| x   Mute note
| b   Bend
| pb  Pre-bend
| br  Bend release
| pbr Pre-bend release
| brb Bend release bend

************************************
Tap to rate this tab
 
# A B C D E F G H I J K L M N O P Q R S T U V W X Y Z