Guitaretab - guitar tabs
Song name
# A B C D E F G H I J K L M N O P Q R S T U V W X Y Z

Paramore - The Only Exception tab

-----------------------------------------------------------------------------
			     The Only Exception - Paramore
-----------------------------------------------------------------------------


Tabbed by: www.StrumPatterns.com
Tempo = 137 bpm
Tuning: E,A,D,G,B,D# (or E,A,D,G,B,Eb)


Time Signature: 3/4
with Swung rhythm (shuffle feel)

See below to see what order and how many times to play the sections 
For the B chord use the finger on the D string to mute the G string

n=Downstroke
V=Upstroke


Verse (also Intro):
###################

     B
     n     n  V  n  V       n     n  V  n  V       n     n  V  n  V     
D#|--0-----0--0--0--0----|--0-----0--0--0--0----|--0-----0--0--0--0----|
B |--0-----0--0--0--0----|--0-----0--0--0--0----|--0-----0--0--0--0----|
G |----------------------|----------------------|----------------------|
D |--9-----9--9--9--9----|--9-----9--9--9--9----|--9-----9--9--9--9----|
A |--9-----9--9--9--9----|--9-----9--9--9--9----|--9-----9--9--9--9----|
E |--7-----7--7--7--7----|--7-----7--7--7--7----|--7-----7--7--7--7----|

			    F#m11#13(no 3rd)
     n     n  V  n  V       n     n  V  n  V       n     n  V  n  V     
D#|--0-----0--0--0--0----|--0-----0--0--0--0----|--0-----0--0--0--0----|
B |--0-----0--0--0--0----|--0-----0--0--0--0----|--0-----0--0--0--0----|
G |----------------------|--11----11-11-11-11---|--11----11-11-11-11---|
D |--9-----9--9--9--9----|--11----11-11-11-11---|--11----11-11-11-11---|
A |--9-----9--9--9--9----|--9-----9--9--9--9----|--9-----9--9--9--9----|
E |--7-----7--7--7--7----|----------------------|----------------------|

     Emaj7(no3rd)
     n     n  V  n  V       n     n  V  n  V       
D#|--0-----0--0--0--0----|--0-----0--0--0--0----||
B |--0-----0--0--0--0----|--0-----0--0--0--0----||
G |--9-----9--9--9--9----|--9-----9--9--9--9----||
D |--9-----9--9--9--9----|--9-----9--9--9--9----||
A |--7-----7--7--7--7----|--7-----7--7--7--7----||
E |----------------------|----------------------||


Chorus
#######

     B  
     n     n  V  n  V       n     n  V  n  V       n     n  V  n  V     
D#|--0-----0--0--0--0----|--0-----0--0--0--0----|--0-----0--0--0--0----|
B |--0-----0--0--0--0----|--0-----0--0--0--0----|--0-----0--0--0--0----|
G |----------------------|----------------------|----------------------|
D |--9-----9--9--9--9----|--9-----9--9--9--9----|--9-----9--9--9--9----|
A |--9-----9--9--9--9----|--9-----9--9--9--9----|--9-----9--9--9--9----|
E |--7-----7--7--7--7----|--7-----7--7--7--7----|--7-----7--7--7--7----|

			 F#m11#13
     n     n  V  n  V       n     n  V  n  V       n     n  V  n  V     
D#|--0-----0--0--0--0----|--0-----0--0--0--0----|--0-----0--0--0--0----|
B |--0-----0--0--0--0----|--0-----0--0--0--0----|--0-----0--0--0--0----|
G |----------------------|--2-----2--2--2--2----|--2-----2--2--2--2----|
D |--9-----9--9--9--9----|--2-----2--2--2--2----|--2-----2--2--2--2----|
A |--9-----9--9--9--9----|----------------------|----------------------|
E |--7-----7--7--7--7----|--2-----2--2--2--2----|--2-----2--2--2--2----|

     Emaj7	
     n     n  V  n  V       n     n  V  n  V
D#|--0-----0--0--0--0----|--0-----0--0--0--0----||
B |--0-----0--0--0--0----|--0-----0--0--0--0----||
G |--1-----1--1--1--1----|--1-----1--1--1--1----||
D |--2-----2--2--2--2----|--2-----2--2--2--2----||
A |--2-----2--2--2--2----|--2-----2--2--2--2----||
E |--0-----0--0--0--0----|--0-----0--0--0--0----||


Post Chorus
###########

     B
     n     n  V  n  V       n     n  V  n  V       n     n  V  n  V     
D#|--0-----0--0--0--0----|--0-----0--0--0--0----|--0-----0--0--0--0----|
B |--0-----0--0--0--0----|--0-----0--0--0--0----|--0-----0--0--0--0----|
G |----------------------|----------------------|----------------------|
D |--9-----9--9--9--9----|--9-----9--9--9--9----|--9-----9--9--9--9----|
A |--9-----9--9--9--9----|--9-----9--9--9--9----|--9-----9--9--9--9----|
E |--7-----7--7--7--7----|--7-----7--7--7--7----|--7-----7--7--7--7----|

     n     n  V  n  V
D#|--0-----0--0--0--0----||
B |--0-----0--0--0--0----||
G |----------------------||
D |--9-----9--9--9--9----||
A |--9-----9--9--9--9----||
E |--7-----7--7--7--7----||


Post Verse
##########
[ Tab from: http://www.guitaretab.com/p/paramore/251622.html ]
     Emaj7(no3rd)
     n  n  n       n     n     n  V
D#|--0--0--0----|--0-----0-----0--0----||
B |--0--0--0----|--0-----0-----0--0----||
G |--9--9--9----|--9-----9-----9--9----||
D |--9--9--9----|--9-----9-----9--9----||
A |--7--7--7----|--7-----7-----7--7----||
E |-------------|----------------------||


Bridge
######

     C#m9(no3rd)
     n     n  V  n  V       n     n  V  n  V       n     n  V  n  V     
D#|--0-----0--0--0--0----|--0-----0--0--0--0----|--0-----0--0--0--0----|
B |--0-----0--0--0--0----|--0-----0--0--0--0----|--0-----0--0--0--0----|
G |----------------------|----------------------|----------------------|
D |--11----11-11-11-11---|--11----11-11-11-11---|--11----11-11-11-11---|
A |--11----11-11-11-11---|--11----11-11-11-11---|--11----11-11-11-11---|
E |--9-----9--9--9--9----|--9-----9--9--9--9----|--9-----9--9--9--9----|

			    B
     n     n  V  n  V       n     n  V  n  V       n     n  V  n  V     
D#|--0-----0--0--0--0----|--0-----0--0--0--0----|--0-----0--0--0--0----|
B |--0-----0--0--0--0----|--0-----0--0--0--0----|--0-----0--0--0--0----|
G |----------------------|----------------------|----------------------|
D |--11----11-11-11-11---|--9-----9--9--9--9----|--9-----9--9--9--9----|
A |--11----11-11-11-11---|--9-----9--9--9--9----|--9-----9--9--9--9----|
E |--9-----9--9--9--9----|--7-----7--7--7--7----|--7-----7--7--7--7----|

     F#6add11
     n     n  V  n  V       n     n  V  n  V
D#|--0-----0--0--0--0----|--0-----0--0--0--0----||
B |--0-----0--0--0--0----|--0-----0--0--0--0----||
G |--3-----3--3--3--3----|--3-----3--3--3--3----||
D |--4-----4--4--4--4----|--4-----4--4--4--4----||
A |--4-----4--4--4--4----|--4-----4--4--4--4----||
E |--2-----2--2--2--2----|--2-----2--2--2--2----||


Bridge Ending
#############

     Emaj7                               
     n     n  V  n  V       n  n  n       n     (held)
D#|--0-----0--0--0--0----|--0--0--0----|--0L---|--0----||
B |--0-----0--0--0--0----|--0--0--0----|--0L---|--0----||
G |--1-----1--1--1--1----|--1--1--1----|--1L---|--1----||
D |--2-----2--2--2--2----|--2--2--2----|--2L---|--2----||
A |--2-----2--2--2--2----|--2--2--2----|--2L---|--2----||
E |--0-----0--0--0--0----|--0--0--0----|--0L---|--0----||


Outro
#####

     F#m11#13					   Emaj7
     n     n  V             n     n  V  n  V       n     n  V  n  V     
D#|--0-----0--0L-0-------|--0-----0--0--0--0----|--0-----0--0--0--0----|
B |--0-----0--0L-0-------|--0-----0--0--0--0----|--0-----0--0--0--0----|
G |--2-----2--2L-2-------|--2-----2--2--2--2----|--1-----1--1--1--1----|
D |--2-----2--2L-2-------|--2-----2--2--2--2----|--2-----2--2--2--2----|
A |----------------------|----------------------|--2-----2--2--2--2----|
E |--2-----2--2L-2-------|--2-----2--2--2--2----|--0-----0--0--0--0----|

                            B			
     n     n  V  n  V       n     n  V  n  V       n     n  V  n  V     
D#|--0-----0--0--0--0----|--0-----0--0--0--0----|--0-----0--0--0--0----|
B |--0-----0--0--0--0----|--0-----0--0--0--0----|--0-----0--0--0--0----|
G |--1-----1--1--1--1----|----------------------|----------------------|
D |--2-----2--2--2--2----|--9-----9--9--9--9----|--9-----9--9--9--9----|
A |--2-----2--2--2--2----|--9-----9--9--9--9----|--9-----9--9--9--9----|
E |--0-----0--0--0--0----|--7-----7--7--7--7----|--7-----7--7--7--7----|

						   F#m11#13        Emaj7
     n     n  V  n  V       n     n  V  n  V       n     (held)    n
D#|--0-----0--0--0--0----|--0-----0--0--0--0----|--0L---|--0----|--0----|
B |--0-----0--0--0--0----|--0-----0--0--0--0----|--0L---|--0----|--0----|
G |----------------------|----------------------|--2L---|--2----|--1----|
D |--9-----9--9--9--9----|--9-----9--9--9--9----|--2L---|--2----|--2----|
A |--9-----9--9--9--9----|--9-----9--9--9--9----|-------|-------|--2----|
E |--7-----7--7--7--7----|--7-----7--7--7--7----|--2L---|--2----|--0----|

	     B
     n     	    (held)
D#|--0----|--0L---|--0----||
B |--0----|--0L---|--0----||
G |--1----|-------|-------||
D |--2----|--9L---|--9----||
A |--2----|--9L---|--9----||
E |--0----|--7L---|--7----||





Song Order:
###########
Intro 2x
Verse 4x (same as intro but with lyrics)
Chorus 2x
Post Chorus 1x
Verse 4x
Post Verse
Chorus 2x
Bridge 4x
Bridge Ending 1x
Verse 2x
Chorus 2x
Outro 1x 

Legend
L - tied note
x - dead note
V - pick stroke up
n - pick stroke down

Visit www.Strumpatterns.com for more tabs, rhythm guitar lessons and tutorials all for free!
Related for The Only Exception tab
×
Best way to learn
"The Only Exception"