Paramore - When It Rains tab

-----------------------------------------------------------------------------
			     When It Rains by Paramore
-----------------------------------------------------------------------------
Tabbed by: CJ Kingston

Tuning: EADGBe (Standard)

Guitar 1: Lead (w/ delay)
Guitar 2: Rhythm


				GUITAR 1:
Intro:
e|------------------11---11---13---15---------11---11------------|
B|-4-----4-----9s11----11---11---11---11---11----11---11--9-11-8-|
G|-5-----5-------------------------------------------------------|
D|---------------------------------------------------------------|
A|---------------------------------------------------------------|
E|---------------------------------------------------------------|

e|----11---11---13---15---------11---11--------------------------|
B|--11---11---11---11---11---11----11---11--9-11-8---------------|
G|------------------------------------------------------8~-------|
D|------------------------------------------------------8~-------|
A|------------------------------------------------------6~-------|
E|---------------------------------------------------------------|

Verse 1:
And when it rains on this side of town it touches 
e|-----------------------------------------------------------|
B|-----------------------------------------------------------|
G|------------------------------------------------8----------|
D|-------------10-----------------6---------------8----------|
A|-------------10-----------------6---------------6----------|
E|-------------8------------------4--------------------------|


Everything, Just say it again and mean it
e|--------------------------------------------------|
B|--------------------------------------------------|
G|---------------------------------------8----------|
D|-----10-----------------6--------------8----------|
A|-----10-----------------6--------------6----------|
E|-----8------------------4-------------------------|

e|-----------------333333333333333-----------------33333333--------------|
B|--44444444444444-----------------444444444444444-----------------------|
G|------------------------------------------------------------777777-33--|
D|-----------------------------------------------------------------------|
A|-----------------------------------------------------------------------|
E|-----------------------------------------------------------------------|

Chorus 1:
e|-----------11---11---13---15---------11---11------------|
B|------9s11----11---11---11---11---11----11---11--9-11-8-|
G|--------------------------------------------------------|
D|--------------------------------------------------------|
A|--------------------------------------------------------|
E|--------------------------------------------------------|

e|----11---11---13---15---------11---11--------------------------|
B|--11---11---11---11---11---11----11---11--9-11-8---------------|
G|------------------------------------------------------8~-------|
D|------------------------------------------------------8~-------|
A|------------------------------------------------------6~-------|
E|---------------------------------------------------------------|

Interlude:
e|-----|
B|--4--|
G|--5--|
D|-----|
A|-----|
E|-----|

Verse 2:
And when it rains, You'll always find and escape

e|-----------------------------------------------------------|
B|-----------------------------------------------------------|
G|------------------------------------------------8----------|
D|-------------10-----------------6---------------8----------|
A|-------------10-----------------6---------------6----------|
E|-------------8------------------4--------------------------|


Just running away, From all of the ones who love you
e|----------------------------------------------------|
B|----------------------------------------------------|
G|--------------------------------------------------8-|
D|------------10-------------------6----------------8-|
A|------------10-------------------6----------------6-|
E|------------8--------------------4------------------|

e|-----------------333333333333333-----------------33333333--------------|
B|--44444444444444-----------------444444444444444-----------------------|
G|------------------------------------------------------------777777-33--|
D|-----------------------------------------------------------------------|
A|-----------------------------------------------------------------------|
E|-----------------------------------------------------------------------|

Chorus 2:
e|-----------11---11---13---15---------11---11------------|
B|------9s11----11---11---11---11---11----11---11--9-11-8-|
G|--------------------------------------------------------|
D|--------------------------------------------------------|
A|--------------------------------------------------------|
E|--------------------------------------------------------|

e|----11---11---13---15---------11---11--------------------------|
B|--11---11---11---11---11---11----11---11--9-11-8---------------|
G|------------------------------------------------------8~-------|
D|------------------------------------------------------8~-------|
A|------------------------------------------------------6~-------|
E|---------------------------------------------------------------|

Bridge:
e|--------11-------11------------------|
B|--11------11-------11-----------6-8--|
G|-------------------------10---8------| x3
D|-------------------------------------|
A|-------------------------------------|
E|-------------------------------------|

e|--------11-------11------------------|
B|--11------11-------11-----13---------|
G|-----------------------------12--13--|
D|-------------------------------------|
A|-------------------------------------|
E|-------------------------------------|

Chorus 3:
e|-----------11---11---13---15---------11---11------------|
B|------9s11----11---11---11---11---11----11---11--9-11-8-|
G|--------------------------------------------------------| x3
D|--------------------------------------------------------|
A|--------------------------------------------------------|
E|--------------------------------------------------------|
Ending:
e|--13-13-13-13-13-13-15-15-15-15-15-15-15--15-13-11~-|
B|----------------------------------------------------|
G|----------------------------------------------------|
D|----------------------------------------------------|
A|----------------------------------------------------|
E|----------------------------------------------------|




					GUITAR 2:
Intro:
e|-----------------------------------------------|
B|-----------------------------------------------|
G|------------------8888-------------------------|
D|--66666666-101010-8888--66666666-888-10101010--|
A|--66666666-101010-6666--66666666-888-10101010--|
E|--44444444-8-8-8--------44444444-666-8-8-8-8---|

e|-----------------------------------------------|
B|-----------------------------------------------|
G|------------------8888-------------------------|
D|--66666666-101010-8888--66666666-888-10101010--|
A|--66666666-101010-6666--66666666-888-10101010--|
E|--44444444-8-8-8--------44444444-666-8-8-8-8---|

e|--------------------|
B|--------------------|
G|--8888888888888888--|
D|--8888888888888888--|
A|--6666666666666666--|
E|--------------------|

Verse 1:
e|--------------|
B|--------------|
G|----------8~--| x2
D|--10~--6~-8~--|
A|--10~--6~-6~--|
E|--8~---4~-----|
                                              
e|--------------|     e|-------------|
B|--------------|     B|-------------|
G|-----------8~-| x2  G|-------------|
D|---6~------8~-|     D|---88888888--|
A|---6~------6~-|     A|---88888888--|
E|---4~---------|     E|---66666666--|

Chorus 1:
e|-----------------------------------------------|
B|-----------------------------------------------|
G|------------------8888-------------------------|
D|--66666666-101010-8888--66666666-888-10101010--|
A|--66666666-101010-6666--66666666-888-10101010--|
E|--44444444-8-8-8--------44444444-666-8-8-8-8---|

e|-----------------------------------------------|
B|-----------------------------------------------|
G|------------------8888-------------------------|
D|--66666666-101010-8888--66666666-888-10101010--|
A|--66666666-101010-6666--66666666-888-10101010--|
E|--44444444-8-8-8--------44444444-666-8-8-8-8---|

e|--------------------|
B|--------------------|
G|--8888888888888888--|
D|--8888888888888888--|
A|--6666666666666666--|
E|--------------------|

Verse 2:
e|--------------|
B|--------------|
G|----------8~--| x2
D|--10~--6~-8~--|
A|--10~--6~-6~--|
E|--8~---4~-----|
                                              
e|--------------|     e|-------------|
B|--------------|     B|-------------|
G|-----------8~-| x2  G|-------------|
D|---6~------8~-|     D|---88888888--|
A|---6~------6~-|     A|---88888888--|
E|---4~---------|     E|---66666666--|

Chorus 2:
e|-----------------------------------------------|
B|-----------------------------------------------|
G|------------------8888-------------------------|
D|--66666666-101010-8888--66666666-888-10101010--|
A|--66666666-101010-6666--66666666-888-10101010--|
E|--44444444-8-8-8--------44444444-666-8-8-8-8---|

e|-----------------------------------------------|
B|-----------------------------------------------|
G|------------------8888-------------------------|
D|--66666666-101010-8888--66666666-888-10101010--|
A|--66666666-101010-6666--66666666-888-10101010--|
E|--44444444-8-8-8--------44444444-666-8-8-8-8---|

Bridge:
e|-----------------------------------------|
B|-----------------------------------------|
G|-----------------------------------------| x3
D|--1010101010101010-88888888-666666666666-|
A|--1010101010101010-88888888-666666666666-|
E|--8-8-8-8-8-8-8-8--66666666-444444444444-|

e|-----------------------------------|
B|-----------------------------------|
G|-----------------------------------|
D|--1010101010101010-88888888-6-6-6~-|
A|--1010101010101010-88888888-6-6-6~-|
E|--8-8-8-8-8-8-8-8--66666666-4-4-4~-|

Chorus 3:
e|-----------------------------------------------|
B|-----------------------------------------------|
G|------------------8888-------------------------| x4
D|--66666666-101010-8888--66666666-888-10101010--|
A|--66666666-101010-6666--66666666-888-10101010--|
E|--44444444-8-8-8--------44444444-666-8-8-8-8---|

Ending:
e|----------------|
B|----------------|
G|-----8----------|
D|--6--8--6-6-6~--| 
A|--6--6--6-6-6~--|
E|--4-----4-4-4~--|
Tap to rate this tab
 
# A B C D E F G H I J K L M N O P Q R S T U V W X Y Z