Paramore - The Only Exception tab

This is the Solo for The Only Exception, by Paramore.
Tuning: Standard 

SOLO (Played during the Bridge)

e|---16~~~~14~~~~------14~~~~-----------------|
B|---------------11/12------------------------|
G|--------------------------------------------|
D|--------------------------------------------|
A|--------------------------------------------|
E|--------------------------------------------|

e|---16~~~~14~~~~-----------------------------|
B|---------------11-12------------------------|
G|----------------------11~~~~----------------|
D|--------------------------------------------|
A|--------------------------------------------|
E|--------------------------------------------|

e|---16~~~~14~~~~------14~~~~-----------------|
B|---------------11/12------------------------|
G|--------------------------------------------|
D|--------------------------------------------|
A|--------------------------------------------|
E|--------------------------------------------|

e|---16~~~~14~~~~-----------------------------|
B|---------------11-12------------------------|
G|----------------------11~~~~----------------|
D|--------------------------------------------|
A|--------------------------------------------|
E|--------------------------------------------|


Legend: 
~ (Let Ring)
/ (Slide)
Tap to rate this tab
 
# A B C D E F G H I J K L M N O P Q R S T U V W X Y Z