Song name
# A B C D E F G H I J K L M N O P Q R S T U V W X Y Z

Paramore - Playing God tab

Playing God by Paramore. Enjoy :)

Intro:

E|----------------|
B|--4---4---4---5-|
G|-4-4-4-4-4-4-4-4|
D|2---2---2---2---| [Repeat]
A|----------------|
D|----------------|

E|--2---2---2---2---2---2---2---2-|
B|--------------------------------|
G|-4-4-4-4-4-4-4-4-4-4-4-4-4-4-4-4|
D|2---2---2---2---2---2---1---1---|
A|--------------------------------|
D|--------------------------------|

Verse 1:
      C#m             B             C#m           B
Can't make my own decisions or make any with precision
            E                                                  E/D#
Well, maybe you should tie me up so I don't go where you don't want me
    C#m                    B              C#m              B
You say that I've been changing, that I'm not just simply aging
                E
Yeah, how could that be logical?
                                E/D#
Just keep on cramming ideas down my throat

Post Chorus:
C#m    B
Wo-o-o-ho-oh

Chorus:
E                           E/D#
You don't have to believe me
        C#m
But the way I, way I see it
A 
Next time you point a finger
B 
I might have to bend it back
   G#m                  A
Or break it, break it off
                            B     
Next time you point a finger... I'll point you to the mirror

Riff:

E|----------------|--2---2---2---2-|
B|--4---4---4---5-|----------------|
G|-4-4-4-4-4-4-4-4|-4-4-4-4-4-4-4-4|
D|2---2---2---2---|2---2---1---1---|
A|----------------|----------------|
D|----------------|----------------|

Verse 2:
   C#m                           B 
If God's the game that you're playing
         C#m                  B
Well, we must get more acquainted
           E                                               E/D#
Because it has to be so lonely... to be the only one who's holy
     C#m               B              C#m                 B
It's just my humble opinion, but it's one that I believe in
            E                                                   E/D#
You don't deserve a point of view, if the only thing you see is you

Post Chorus:
C#m    B
Wo-o-o-ho-oh

Chorus:

E                           E/D#
You don't have to believe me
        C#m
But the way I, way I see it
A 
Next time you point a finger
B 
I might have to bend it back
   G#m                  A
Or break it, break it off
                            B     
Next time you point a finger... I'll point you to the mirror

Solo:
     A               B               C#m           E     E/D#
E|-------------------------------0-0-0-0-0-0-0-0-2-2-2-4-4-4-4-4|
B|2-2-2-2-2-2-2-2-4-4-4-4-4-4-4-4-------------------------------|
G|--------------------------------------------------------------|
D|--------------------------------------------------------------|
A|--------------------------------------------------------------|
D|--------------------------------------------------------------|
      A                 B            E            E      E/D#
E|-------------------------------------------------------------|
B|2-2-2-2-2-2-2-2-4-4-4-4-4-4-4-4---------------5-5-5-4-4-4-4-4|
G|-------------------------------4-4-4-4-4-4-4-4---------------|
D|-------------------------------------------------------------|
A|-------------------------------------------------------------|
D|-------------------------------------------------------------|

Bridge: [Repeat solo]
A                       B
This is the last second chance

(I'll point you to the mirror)
C#m                    E/D#  E
I'm half as good as it gets

(I'll point you to the mirror)
A                        B
I'm on both sides of the fence

(I'll point you to the mirror)
C#m               E       E/D#
Without a hint of regret... I'll hold you to it

Solo 2:

I'm on both sides of the fence..

E|7-7-7-7-7-7-5-5-4-4-4-4-4-4-4-4|7-7-7-7-7-7-9-9-----------------4|
B|5-5-5-5-5-5-4-4-2-2-2-2-2-2-2-2|5-5-5-5-5-5-7-7-9-9-9-7-7-7-7-7-5|
G|-------------------------------|----------------9-9-9-8-8-8-8-8--|
D|-------------------------------|---------------------------------|
A|-------------------------------|---------------------------------|
D|-------------------------------|---------------------------------|

Chorus:
E 
I know you don't believe me
        C#m 
But the way I, way I see it
A              
Next time you point a finger
B  
I might have to bend it back
   G#m                     C#m   B
Or break it, break it off
A                            B
Next time you point a finger... I'll point you to the mirror

E                           E/D#
I know you won't believe me
        C#m
But the way I, way I see it
A 
Next time you point a finger
B 
I might have to bend it back
   G#m                  A
Or break it, break it off
                            B     
Next time you point a finger... I'll point you to the mirror

Hope it works for you :D
Tap to rate this tab
 
# A B C D E F G H I J K L M N O P Q R S T U V W X Y Z