Song name
# A B C D E F G H I J K L M N O P Q R S T U V W X Y Z

Paramore - In The Mourning tab

Take in the fact that I did this with no capo, but i acted like there was so it should sound fine.

Capo 3rd fret | Standard Tuning

Layout:
Verse 1 (x4)
Pre Chorus
Chorus
Verse 2 (x2)
Pre Chorus
Chorus


Verse:
|--------------------------------------------------|
|------1---------0------0-----0-----0--------------|
|--------------------------------------------------|
|---2----2-----2----2-----2-----2-----2------------|
|-3---3----3-2----0---0-----0-----0-----0----------|
|--------------------------------------------------|
  C              E    A

Pre Chorus:
|----------------------------------------|
|--------1------------0------0-----------|
|----------------------------------------|
|----2-----2-------2----2-----2----------|
|--3---3-----3--2----0---0-----0---------|
|----------------------------------------|
  C                  E    A

|-----------------------------------------|
|-----1-----0-----------------------------|
|------------------0------0-----0-----0---|
|-2-----2------2------2-----2-----2-------| x2 (the last chord you play
|---3-----2------0------------------------|         a bit longer)
|-----------------------0-----0-----0---0-|
  C        E      A

Chorus:
|-----------------------------------2-----2-----2------------|
|------1------------0----------1-----1-----1-----1-----------|
|-----------------------------2---2-----2-----2-----2--------|
|---2----2-------2-----2-------------------------------------| x2
|-3---3----3---2---2-----2-----------------------------------|
|------------------------------------------------------------|
  C                E                 D

|------------------------------------------------------|
|------1-----------0------------0-----1-----0----------|
|------------------------------------------------------|
|---2----2------2----2------2-----2-----2--------------|
|-3---3----3--2---2----2--0----0-----0-----0-----------|
|------------------------------------------------------|
  C               E              A

|---------------------------------------------|
|------1-----------0------------0/1/0---------|
|---------------------------------------------|
|---2----2------2----2------2-----------------|
|-3---3----3--2---2----2--0---0---------------|
|---------------------------------------------|
  C           E           A

Lyrics:
You escape like a runaway train
Off the tracks and down again
My hearts beating like a steam boat tugging all your burdens
On my shoulders

In the mourning i'll rise
In the mourning i'll let you die
In the mourning all my worry.

Now there's nothing but time that's wasted
And words that have no backbone
Oh, the whole world
Seems to be waiting
Can you hear the echoes fading

In the mourning i'll rise
In the mourning i'll let you die
In the mourning all my sorry's
Tap to rate this tab
 
# A B C D E F G H I J K L M N O P Q R S T U V W X Y Z