Paramore - Spring Tour tab

This is all tabbed from this video, it's the clearest version I could find:

http://www.youtube.com/watch?v=dtLmGpi8YSs




00:00 - 0:19
e|----------------------------------|
B|--------------6-------------------|
G|------8----------------8-------8--|
D|----------------------------------|
A|--6-------6-------6--------6------|
E|----------------------------------| x2



e|----------------------------------|
B|--------------8-------------------|
G|------8----------------8-------8--|
D|--6-------6-------6--------6------|
A|----------------------------------|
E|----------------------------------|x2



Repeat this section twice ^^^



0:20 - 0:29

e|-------------------------------------------------------------------|
B|----------------------------6--------------------6-----------------|
G|------8-------8-------8--------8--------8----------------8-----8---|
D|-------------------------------------------------------------------|
A|--6-------6-------6---------6-------6-------6----6----------6------|
E|-------------------------------------------------------------------|





e|-----------------------------------------------6-------------------|
B|--------------8----------------------------------------8-----------|
G|------8---------------8-------8---------8---------------------8----|
D|--6-------6-------6-------6----------6------6------6-------6-------|
A|-------------------------------------------------------------------|
E|-------------------------------------------------------------------|




00:29 - 1:09

e|----------------------------------|
B|--------------6-------------------|
G|------8----------------8-------8--|
D|----------------------------------|
A|--6-------6-------6---------6-----|
E|----------------------------------| x2


e|---------------------------------------------6-------------|
B|--------------8-----------8----------------------------8---|
G|------8---------------8------8---------8------------8-----8|
D|--6-------6-------6-----------------6-----6-----6----------|
A|-----------------------------------------------------------|
E|-----------------------------------------------------------| x2


Keep repeating until 1:09 ^^^^^



1:09 - 1:28

e|--------------------------------------------------------|
B|----------------6-----------6---------6-----------------|
G|------8--------------8-----------8--------8--------8----|
D|-------------------------------------------------6------|
A|--6-------6---------------------------------------------|
E|--------------------------------------------------------| 


e|---------------------------------------------------|
B|-----------------8---------8---------8-------------|
G|------8--------------8---------8--------8--------8-|
D|--6-------6------------------------------------6---|
A|---------------------------------------------------|
E|---------------------------------------------------|

Repeat this section twice ^^^



1:28 - 1:48

~~~~  = Let it ring
distortion on

e|------------------------------------------------------------|
B|------------------------------------8~~~~---------8~~~~~----|
G|-------------------------------------------8~~~~~-----------|
D|---5~~~~---6~~~~---8~~~~~-----------------------------------|
A|------------------------------------------------------------|
E|------------------------------------------------------------|

e|-------------------------------------------------------------------|
B|---8~~~~---9~~~~--11~~~~------------8~~~~----9~~~~~~-----8~~~~~----|
G|-------------------------------------------------------------------|
D|-------------------------------------------------------------------|
A|-------------------------------------------------------------------|
E|-------------------------------------------------------------------|


1:49 - 1:53

e|------------------------------------------------------------|
B|---8~~~~~~~~~~~~~~----------6~~~~~~~~~~~~~~~~~~~------------|
G|------------------------------------------------------------|
D|------------------------------------------------------------|
A|------------------------------------------------------------|
E|------------------------------------------------------------|



And that's it!

Not 100% sure whether it's right, tell me if you have any corrections (:
Tap to rate this tab
 
# A B C D E F G H I J K L M N O P Q R S T U V W X Y Z