Paramore - Turn It Off Acoustic tab

-------------------------------------------------------------------------------
                             TURN IT OFF - Paramore
-------------------------------------------------------------------------------
Tabbed by: Kris
Email: raining-tears-ofblood@hotmail.com

NOTE: Chords for Guitar 2 are listed above the lyrics. Chords 
for Guitar 2 are relative to the Capo.  Meaning that 'G' means 
play the G-shaped chord.  Easy enough, right?  This was originally 
tabbed for a performance I did at a school talent show, and the 
person who was playing the second guitar wanted to have at least 
one part where they did some picking, so Guitar 2 does the verses, 
which explains why Guitar 1 plays chords for the verses.  Last thing,
The chord names shown for Guitar 2 are the chord shapes you play.  
It's not the name of the actual chord you're playing.


Tuning: Guitar 1: Standard
        Guitar 2: Standard, Capo 5

GUITAR 1:

Intro:

e|---------------------------------------------------------------------------|
B|---------------------------------------------------------------------------|
G|---------------------------------------------------------------------------|
D|-10-9-10-9-------------------10-9-10-9-------------------------------------|
A|-----------10-5-5-7-8-7-000------------10-5-5-7-8-7------------------------|
E|---------------------------------------------------------------------------|

e|---------------------------------------------------------------------------|
B|-13-12-13-12--------------------13-12-13-12--------------------------------|
G|-------------12-7-7-9-10-9------------------12-7-7-9-10-9--7---------------|
D|---------------------------777---------------------------------------------|
A|---------------------------------------------------------------------------|
E|---------------------------------------------------------------------------|

VERSE 1:
              Am            C            Dm            F
e|------------5~------------3~-----------5~------------8~--------------------|
B|------------5~------------5~-----------6~------------10~-------------------|
G|------------5~------------5~-----------7~------------10~-------------------|
D|------------7~------------5~-----------7~------------10~-------------------| x2
A|------------7~------------3~-----------5~------------8~--------------------|
E|------------5~-------------------------------------------------------------|

PRE-CHORUS:

e|-------12----------12----------12----------12---------12----------12-------|
B|----13----13----13----13----13----13----13----13---13----13----13----13----|
G|---------------------------------------------------------------------------|
D|-------------------------10----------10----------12---------12-------------|
A|-12----------12------------------------------------------------------------|
E|---------------------------------------------------------------------------|

e|-------10----------10----------12----------12----------12----------12------|
B|----13----13----13----13----13----13----13----13----13----13----13----13---|
G|-10----------10------------------------------------------------------------|
D|-------------------------------------------------10----------10------------|
A|-------------------------12----------12------------------------------------|
E|---------------------------------------------------------------------------|

e|-------12----------12-----10~----------------------------------------------|
B|----13----13----13----13--13~----------------------------------------------|
G|--------------------------10~----------------------------------------------|
D|-12----------12------------------------------------------------------------|
A|---------------------------------------------------------------------------|
E|---------------------------------------------------------------------------|

CHORUS:

|-------------------------------------------------------------|
|-------------------------------------------------------------|
|-7-55-7-5555-4-4-4-4-4-4-4--44---55--12121212----4-55-22-555-|
|-5-55-5-5555-5-5-5-5-5-5-5--xx---xx---x-x-x-x----x-xx-xx-xxx-| x2
|----------------------------22---33--10101010----2-33-22-333-|
|-------------------------------------------------------------|

INTRO:

e|---------------------------------------------------------------------------|
B|----------------------------13-12-13-12------------------------------------|
G|----------------------------------------12-7-7-9-10-9-10/12----------------|
D|-10-9-10-9-----------------------------------------------------------------|
A|-----------10-5-5-7-8-7-000------------------------------------------------|
E|---------------------------------------------------------------------------|

VERSE 2:
              Am            C            Dm            F
e|------------5~------------3~-----------5~------------8~--------------------|
B|------------5~------------5~-----------6~------------10~-------------------|
G|------------5~------------5~-----------7~------------10~-------------------|
D|------------7~------------5~-----------7~------------10~-------------------| x2
A|------------7~------------3~-----------5~------------8~--------------------|
E|------------5~-------------------------------------------------------------|

PRE-CHORUS

e|-------12----------12----------12----------12---------12----------12-------|
B|----13----13----13----13----13----13----13----13---13----13----13----13----|
G|---------------------------------------------------------------------------|
D|-------------------------10----------10----------12---------12-------------|
A|-12----------12------------------------------------------------------------|
E|---------------------------------------------------------------------------|

e|-------10----------10----------12----------12----------12----------12------|
B|----13----13----13----13----13----13----13----13----13----13----13----13---|
G|-10----------10------------------------------------------------------------|
D|-------------------------------------------------10----------10------------|
A|-------------------------12----------12------------------------------------|
E|---------------------------------------------------------------------------|

e|-------12----------12-----10~----------------------------------------------|
B|----13----13----13----13--13~----------------------------------------------|
G|--------------------------10~----------------------------------------------|
D|-12----------12------------------------------------------------------------|
A|---------------------------------------------------------------------------|
E|---------------------------------------------------------------------------|

CHORUS:

e|-------------------------------------------------------------|
B|-------------------------------------------------------------|
G|-7-55-7-5555-4-4-4-4-4-4-4--44---55--12121212----4-55-22-555-|
D|-5-55-5-5555-5-5-5-5-5-5-5--xx---xx---x-x-x-x----x-xx-xx-xxx-| x2
A|----------------------------22---33--10101010----2-33-22-333-|
E|-------------------------------------------------------------|

INTRO:

e|---------------------------------------------------------------------------|
B|----------------------------13-12-13-12------------------------------------|
G|----------------------------------------12-7-7-9-10-9----------------------|
D|-10-9-10-9-----------------------------------------------------------------|
A|-----------10-5-5-7-8-7-000------------------------------------------------|
E|---------------------------------------------------------------------------|

SOLO:

e|---8---10-8----12-----------------20-19----15-17-15------------------------|
B|------------------15-13-----17----------17-------------13------------------|
G|-9---9------10--------------------------------------14---------------------|
D|-------------------------19----19-------------------------14~--------------|
A|---------------------------------------------------------------------------|
E|---------------------------------------------------------------------------|

BRIDGE:

e|--------------------------------------------------------------------------------|
B|--13~--------15~--------13~--------13~--------13~--------15~--------13~----15~--|
G|--12~--------14~--------14~--------14~--------12~--------14~--------14~----16~--|
D|--14~--------12~--------15~--------14~--------14~--------12~--------15~---------|
A|--------------------------------------------------------------------------------|
E|--------------------------------------------------------------------------------|

e|-----------------------------------------------------------------------|
B|-----------------------------------------------------------------------|
G|-7-5-5-7-5-5-7-5-7-5-5-7-5-5-7-5-7-5-5-7-5-5-7-5-7-4-4-4-4-4-4-4-4-4---|
D|-5-5-5-5-5-5-5-5-5-5-5-5-5-5-5-5-5-5-5-5-5-5-5-5-5-5-5-5-5-5-5-5-5-5---| x2
A|-----------------------------------------------------------------------|
E|-----------------------------------------------------------------------|

CHORUS:

e|-------------------------------------------------------------|
B|-------------------------------------------------------------|
G|-7-55-7-5555-4-4-4-4-4-4-4--44---55--12121212----4-55-22-555-|
D|-5-55-5-5555-5-5-5-5-5-5-5--xx---xx---x-x-x-x----x-xx-xx-xxx-| x2
A|----------------------------22---33--10101010----2-33-22-333-|
E|-------------------------------------------------------------|

e|-12-1010-1515-121212---12-1010-1515-121212--77-88-10101010--55-77--888-|
B|-----------------------------------------------------------------------|
G|-----------------------------------------------------------------------|
D|-----------------------------------------------------------------------|
A|-----------------------------------------------------------------------|
E|-----------------------------------------------------------------------|

OR IT COULD BE PLAYED THIS WAY:

(Those are 12's, 13's, 14's, 15's, 16's, and 17', not 1's, 2's, 3's, 4's,5's, 6's, and 7's)
e|-12------1515-121212---12------1515-121212---------------------------------------|
B|----1515------------------1515--------------1212-1313-15151515-------------------|
G|---------------------------------------------------------------1414-1616-171717--|
D|---------------------------------------------------------------------------------|
A|---------------------------------------------------------------------------------|
E|---------------------------------------------------------------------------------|

ENDING:

e|-12~---------|
B|-13~---------|
G|-12~---------|
D|-------------|
A|-------------|
E|-------------|

GUITAR 2:

Intro: Em,D,G,D,Em,D,G X2

VERSES: (Relative to Capo. Meaning: '2' is the 7th fret)
Only for the first four lines of each verse, the rest is actual chords.
e|----------------------------------------------------------------------------|
B|-------0--------------0-------------0-------------0-------------------------|
G|-----0---0---0------0---0---0-----0---0---0-----0---0---0-------------------| x2
D|---2-------2------2-------2-----2-------2-----2-------2---------------------|
A|------------------------------0-------------2-------------------------------|
E|-0--------------2-----------------------------------------------------------|

Verse 1
I scraped my knees when I was praying
And found a demon in my safest haven, seems like 
It's getting harder to believe in anything 
And just to get lost in all my selfish thoughts 
Em                         G
I wanna know what it'd be like 
Am                         C
To find perfection in my pride 
                        Em                              
To see nothing in the light? 
             G              Am
But turn it off In all my spite 
            C
In all my spite I'll turn it off 

Chorus

G                  C
And the worst part is 
                Em
Before it gets any better 
     C
We're heading for a cliff 
G                     C
And in the free fall I will realize 
Em                     C
I'm better off when I hit the bottom 

Em,D,G,D,Em,D,G

Verse 2

The tragedy it seems unending 
I'm watching everyone I looked up to break and bending 
We're taking short cuts and false solutions 
Just to come out the hero 
Em                         G
Well I can see behind the curtain 
Am                                D
The world's cranking, turning, so wrong the way we're working 
Em                      G
Towards a goal, that's nonexistent 
Am                  D
It's nonexistent, but we just keep believing 


Chorus

G                  C
And the worst part is 
                Em
Before it gets any better 
     C
We're heading for a cliff 
G                     C
And in the free fall I will realize 
Em                     C
I'm better off when I hit the bottom 

Em,D,G,D,Em,D,G

Bridge: 
(Not relative to Capo)
e|--------------------------------------------------------------------------------|
B|--13~--------15~--------13~--------13~--------13~--------15~--------13~----15~--|
G|--12~--------14~--------14~--------14~--------12~--------14~--------14~----16~--|
D|--14~--------12~--------15~--------14~--------14~--------12~--------15~---------|
A|--------------------------------------------------------------------------------|
E|--------------------------------------------------------------------------------|

                       
I wanna know what it'd be like 
To find perfection in my pride 
To see nothing in the light? 
But turn it off In all my spite 
In all my spite I'll turn it off Just turn it off 

(Not relative to Capo)
e|--------------------------------------------------------------------------------|
B|-13-11-11-13-11-11-13-11-13-11-11-13-11-11-13-11-13-10-10-10-10-10-10-10-10-10--|
G|-10-10-10-10-10-10-10-10-10-10-10-10-10-10-10-10-10-10-10-10-10-10-10-10-10-10--|
D|--------------------------------------------------------------------------------| x2
A|--------------------------------------------------------------------------------|
E|--------------------------------------------------------------------------------|

Chorus

G                  C
And the worst part is 
                Em
Before it gets any better 
     C
We're heading for a cliff 
G                     C
And in the free fall I will realize 
Em                     C
I'm better off when I hit the bottom 
G                  C
And the worst part is 
                Em
Before it gets any better 
     C
We're heading for a cliff 
G                     C
And in the free fall I will realize 
Em                     C            
I'm better off when I hit the bottom 

ENDING:
(not relative to Capo)
e|-------------|
B|-------------|
G|--12~--------|
D|--10~--------|
A|-------------|
E|--12~--------|


************************************

| p   pull-off
| ~   vibrato

************************************
Tap to rate this tab
 
# A B C D E F G H I J K L M N O P Q R S T U V W X Y Z