Song name
# A B C D E F G H I J K L M N O P Q R S T U V W X Y Z

Paramore - Playing God tab

Left guitar

e|-----------------------------------|
B|-----------------------------------|
G|-------8-------8-------8-------9---|
D|-----6---6---6---6---6---6---6-----|
A|---7-------7-------7-------7-------|
E|-----------------------------------|	2x

e|---------------------|
B|-------7-------7-----|
G|-----4---4---4---4---|
D|---6-------6---------|
A|---------------------|
E|---------------------|	4x

Repeat the riff twice /\

(palm mute)
e|-------------------------------|
B|-------------------------------|
G|-------------------------------|
D|-----------------------9-9-9---|
A|---7-7-7-7-7-7-7-7-9-9-9-9-9---|
E|---5-5-5-5-5-5-5-5-7-7-7-7-7---|

"You don't have to believe me"
e|-------------------------------------------------------------|
B|-------------------------------------------------------------|
G|---9-9--9-9-9--9-9-9--9-9-9--9-6-6--6-6-6--6-6-6--6-6-6--6---|
D|---9-9--9-9-9--9-9-9--9-9-9--9-6-6--6-6-6--6-6-6--6-6-6--6---|
A|---7-7--7-7-7--7-7-7--7-7-7--7-4-4--4-4-4--4-4-4--4-4-4--4---|
E|-------------------------------------------------------------|

"Next time you point a finger I might have..."
e|-----------------------------------------------------------------------------|
B|-----------------------------------------------------------------------------|
G|-----------------------------------------------------------------------------|
D|---7-7--7-7-7--7-9-9--9-9-9--9-6-6--6-6-6--6-7-7--7-7-7--7-7-7--7-7-7--7-9---|
A|---7-7--7-7-7--7-9-9--9-9-9--9-6-6--6-6-6--6-7-7--7-7-7--7-7-7--7-7-7--7-9---|
E|---5-5--5-5-5--5-7-7--7-7-7--7-4-4--4-4-4--4-5-5--5-5-5--5-5-5--5-5-5--5-7---|

e|------------------------------------------------------------------|
B|--------------------------------------7-------7-------7-------7---|
G|-------8-------8-------8-------9----4---4---4---4---4---4---4-----|
D|-----6---6---6---6---6---6---6----6-------6-------6-------6-------|
A|---7-------7-------7-------7--------------------------------------|
E|------------------------------------------------------------------|

play riff twice

(palm mute)
e|-------------------------------------|
B|-------------------------------------|
G|-------------------------------------|
D|-------------------9-9-9-9-9-9-9-9---|
A|---7-7-7-7-7-7-7-7-9-9-9-9-9-9-9-9---|
E|---5-5-5-5-5-5-5-5-7-7-7-7-7-7-7-7---|

"You don't have to believe me"
e|-------------------------------------------------------------|
B|-------------------------------------------------------------|
G|---9-9--9-9-9--9-9-9--9-9-9--9-6-6--6-6-6--6-6-6--6-6-6--6---|
D|---9-9--9-9-9--9-9-9--9-9-9--9-6-6--6-6-6--6-6-6--6-6-6--6---|
A|---7-7--7-7-7--7-7-7--7-7-7--7-4-4--4-4-4--4-4-4--4-4-4--4---|
E|-------------------------------------------------------------|

"Next time you point a finger I might have..."
e|-------------------------------------------------------------|
B|-------------------------------------------------------------|
G|-------------------------------------------------------------|
D|---7-7--7-7-7--7-9-9--9-9-9--9-6-6--6-6-6--6-7-7--7-7-7--7---|
A|---7-7--7-7-7--7-9-9--9-9-9--9-6-6--6-6-6--6-7-7--7-7-7--7---|
E|---5-5--5-5-5--5-7-7--7-7-7--7-4-4--4-4-4--4-5-5--5-5-5--5---|

"Next time you point a finger I point you to the mirror"
e|-----------------------------------|
B|-----------------------------------|
G|-----------------------------------|
D|---7-7--7-7-7--7-9-9-9-9-9-9-9-9---|
A|---7-7--7-7-7--7-9-9-9-9-9-9-9-9---|
E|---5-5--5-5-5--5-7-7-7-7-7-7-7-7---|

(solo)
e|---------------------------------------------------------------------|
B|---------------------------------------------------------------------|
G|-----------------------------------6-6-6-6-6-6-6-6-------------------|
D|---7-7-7-7-7-7-7-7-9-9-9-9-9-9-9-9-6-6-6-6-6-6-6-6-6-6-6-6-6-6-6-6---|
A|---7-7-7-7-7-7-7-7-9-9-9-9-9-9-9-9-4-4-4-4-4-4-4-4-6-6-6-6-6-6-6-6---|
E|---5-5-5-5-5-5-5-5-7-7-7-7-7-7-7-7-----------------4-4-4-4-4-4-4-4---|	3x

"I'm on both sides of the fence"
e|---------------------------------------------------------------------|
B|---------------------------------------------------------------------|
G|-----------------------------------6-6-6-6-6-6-6-6-------------------|
D|---7-7-7-7-7-7-7-7-9-9-9-9-9-9-9-9-6-6-6-6-6-6-6-6-9-9-9-9-9-9-9-9---|
A|---7-7-7-7-7-7-7-7-9-9-9-9-9-9-9-9-4-4-4-4-4-4-4-4-6-6-6-6-6-6-6-6---|
E|---5-5-5-5-5-5-5-5-7-7-7-7-7-7-7-7-----------------------------------|

"I know you don't believe me"
e|-------|
B|-------|
G|---9---|
D|---9---|
A|---7---|
E|-------|

"But the way I, way I see it"
e|-------------------------------------|
B|-------------------------------------|
G|---6-6-6-6-6-6-6-6-6-6-6-6-6-6-6-6---|
D|---6-6-6-6-6-6-6-6-6-6-6-6-6-6-6-6---|
A|---4-4-4-4-4-4-4-4-4-4-4-4-4-4-4-4---|
E|-------------------------------------|

"Next time you point a finger I might have..."
e|--------------------------------------------------------------------|
B|--------------------------------------------------------------------|
G|----------------------------------------------------6-6-4-4-4-4-4---|
D|---7-7-7-7-7-7-7-7-9-9-9-9-9-9-9-9-6-6-6-6-6-6-6-6--6-6-4-4-4-4-4---|
A|---7-7-7-7-7-7-7-7-9-9-9-9-9-9-9-9-6-6-6-6-6-6-6-6--4-4-2-2-2-2-2---|
E|---5-5-5-5-5-5-5-5-7-7-7-7-7-7-7-7-4-4-4-4-4-4-4-4------------------|

"Next time you point your finger I point you to the mirror"
e|-------------------------------------|
B|-------------------------------------|
G|-------------------------------------|
D|---7-7-7-7-7-7-7-7-9-9-9-9-9-9-9-9---|
A|---7-7-7-7-7-7-7-7-9-9-9-9-9-9-9-9---|
E|---5-5-5-5-5-5-5-5-7-7-7-7-7-7-7-7---|

"I know you won't believe me..."
e|-------------------------------------------------------------|
B|-------------------------------------------------------------|
G|---9-9--9-9-9--9-9-9--9-9-9--9-6-6--6-6-6--6-6-6--6-6-6--6---|
D|---9-9--9-9-9--9-9-9--9-9-9--9-6-6--6-6-6--6-6-6--6-6-6--6---|
A|---7-7--7-7-7--7-7-7--7-7-7--7-4-4--4-4-4--4-4-4--4-4-4--4---|
E|-------------------------------------------------------------|

"Next time you point a finger I might have..."
e|-------------------------------------------------------------|
B|-------------------------------------------------------------|
G|-------------------------------------------------------------|
D|---7-7--7-7-7--7-9-9--9-9-9--9-6-6--6-6-6--6-7-7--7-7-7--7---|
A|---7-7--7-7-7--7-9-9--9-9-9--9-6-6--6-6-6--6-7-7--7-7-7--7---|
E|---5-5--5-5-5--5-7-7--7-7-7--7-4-4--4-4-4--4-5-5--5-5-5--5---|

"Next time you point a finger I point you to the mirror"
e|-----------------------------|
B|-----------------------------|
G|-----------------------------|
D|---7-7--7-7-7--7-9-9-9-9-9---|
A|---7-7--7-7-7--7-9-9-9-9-9---|
E|---5-5--5-5-5--5-7-7-7-7-7---|



_____________________
Right guitar

e|-------------------------------------|
B|-------------------------------------|
G|-------4-------4-------4-------4-----|
D|-----2---2---2---2---2---2---4---4---|
A|---4-------4-------4-------2---------|
E|-------------------------------------|	2x

e|---------------------|
B|---------------------|
G|-------4-------4-----|
D|-----6---6---6---6---|
A|---7-------7---------|
E|---------------------|	3x

e|-------------------|
B|-------------------|
G|-------4-------4---|
D|-----6---6---6-----|
A|---6-------6-------|
E|-------------------|

"Can't make my own decisions..."
e|-------------------------------------|
B|-------------------------------------|
G|-------4-------4-------4-------4-----|
D|-----2---2---2---2---2---2---4---4---|
A|---4-------4-------4-------2---------|
E|-------------------------------------|	2x

"Or maybe you should..."
e|---------------------|
B|---------------------|
G|-------4-------4-----|
D|-----6---6---6---6---|
A|---7-------7---------|
E|---------------------|	3x

e|-------------------|
B|-------------------|
G|-------4-------4---|
D|-----6---6---6-----|
A|---7-------6-------|
E|-------------------|

"You say that I've been changing"
e|-------------------------------------|
B|-------------------------------------|
G|-------4-------4-------4-------4-----|
D|-----2---2---2---2---2---2---4---4---|
A|---4-------4-------4-------2---------|
E|-------------------------------------|	2x

"Yeah, how could that be logical?"
e|---------------------|
B|---------------------|
G|-------4-------4-----|
D|-----6---6---6---6---|
A|---7-------7---------|
E|---------------------|	3x

e|-------------------|
B|-------------------|
G|-------4-------4---|
D|-----6---6---6-----|
A|---6-------6-------|
E|-------------------|

palm mute
e|-------------------------------|
B|-------------------------------|
G|-----------------------8-8-8---|
D|-------------------------------|
A|---4-4-4-4-4-4-4-4-6-6-6-6-6---|
E|-------------------------------|

"You don't have to believe me"
e|-------------------|
B|-------------------|
G|---9/11--9/11--9---|
D|-------------------|
A|---7/9---7/9---7---|
E|-------------------|	4x

"Next time you point a finger I might have..."
e|-----------------------------------------------------------------------------|
B|-----------------------------------------------------------------------------|
G|---6-6--6-6-6--6-8-8--8-8-8--8-4-4--4-4-4--4-6-6--6-6-6--6-6-6--6-6-6--6-8---|
D|-----------------------------------------------------------------------------|
A|---4-4--4-4-4--4-6-6--6-6-6--6-2-2--2-2-2--2-4-4--4-4-4--4-4-4--4-4-4--4-6---|
E|-----------------------------------------------------------------------------|

e|---------------------------------------------------------------------|
B|---------------------------------------------------------------------|
G|-------4-------4-------4-------4-------4-------4-------4-------4-----|
D|-----2---2---2---2---2---2---4---4---2---2---2---2---2---2---4---4---|
A|---4-------4-------4-------2-------0-------0-------0-------2---------|
E|---------------------------------------------------------------------|

"If God's the game that you're playing..."
e|-------------------------------------|
B|-------------------------------------|
G|-------4-------4-------4-------4-----|
D|-----2---2---2---2---2---2---4---4---|
A|---4-------4-------4-------2---------|
E|-------------------------------------|	2x

"Because it has to be so lonely..."
e|---------------------|
B|---------------------|
G|-------4-------4-----|
D|-----6---6---6---6---|
A|---7-------7---------|
E|---------------------|	3x

e|-------------------|
B|-------------------|
G|-------4-------4---|
D|-----6---6---6-----|
A|---7-------6-------|
E|-------------------|

"It's just my humble opinion..."
e|-------------------------------------|
B|-------------------------------------|
G|-------4-------4-------4-------4-----|
D|-----2---2---2---2---2---2---4---4---|
A|---4-------4-------4-------2---------|
E|-------------------------------------|	2x

"You don't deserve..."
e|---------------------|
B|---------------------|
G|-------4-------4-----|
D|-----6---6---6---6---|
A|---7-------7---------|
E|---------------------|	3x

e|-------------------|
B|-------------------|
G|-------4-------4---|
D|-----6---6---6-----|
A|---6-------6-------|
E|-------------------|

"Wooo..."
palm mute
e|-------------------------------------|
B|-------------------------------------|
G|-------------------8-8-8-8-8-8-8-8---|
D|-------------------------------------|
A|---4-4-4-4-4-4-4-4-6-6-6-6-6-6-6-6---|
E|-------------------------------------|

"You don't have to believe me"
e|-------------------|
B|-------------------|
G|---9/11--9/11--9---|
D|-------------------|
A|---7/9---7/9---7---|
E|-------------------|	4x

"Next time you point a finger I might have..."
e|-------------------------------------------------------------------------------------------|
B|-------------------------------------------------------------------------------------------|
G|---6-6--6-6-6--6-8-8--8-8-8--8-4-4--4-4-4--4-6-6--6-6-6--6-6-6--6-6-6--6-8-8-8-8-8-8-8-8---|
D|-------------------------------------------------------------------------------------------|
A|---4-4--4-4-4--4-6-6--6-6-6--6-2-2--2-2-2--2-4-4--4-4-4--4-4-4--4-4-4--4-6-6-6-6-6-6-6-6---|
E|-------------------------------------------------------------------------------------------|

Solo
e|---0-0-0-0-0-0-0-0-0-0-0-0-0-0-0-0-0-0-0-0-0-0-0-0-0-0-0-0-0-0-0-0---|
B|---2-2-2-2-2-2-2-2-4-4-4-4-4-4-4-4-5-5-5-5-5-5-5-5-7-7-7-9-9-9-9-9---|
G|---------------------------------------------------------------------|
D|---------------------------------------------------------------------|
A|---------------------------------------------------------------------|
E|---------------------------------------------------------------------|

e|---0-0-0-0-0-0-0-0-0-0-0-0-0-0-0-0-0-0-0-0-0-0-0-0-0-0-0-0-0-0-0-0---|
B|---2-2-2-2-2-2-2-2-4-4-4-4-4-4-4-4-0-0-0-0-0-0-0-0-5-5-5-4-4-4-4-4---|
G|---------------------------------------------------------------------|
D|---------------------------------------------------------------------|
A|---------------------------------------------------------------------|
E|---------------------------------------------------------------------|

"This is the last second chance"
e|---0-0-0-0-0-0-0-0-0-0-0-0-0-0-0-0-0-0-0-0-0-0-0-0-0-0-0-0-0-0-0-0---|
B|---2-2-2-2-2-2-2-2-4-4-4-4-4-4-4-4-5-5-5-5-5-5-5-5-7-7-7-7-7-7-7-7---|
G|---------------------------------------------------------------------|
D|---------------------------------------------------------------------|
A|---------------------------------------------------------------------|
E|---------------------------------------------------------------------|

e|---0--0--0--0--0--0--0--0--0-0-0-0-0-0-0-0-0--0--0--0--0--0--0--0--0-0-0-0-0-0-0-0-0---|
B|---12-12-12-12-12-12-10-10-9-9-9-9-9-9-9-9-12-12-12-12-12-12-14-14-9-9-9-9-7-7-7-7-0---|
G|---------------------------------------------------------------------------------------|
D|---------------------------------------------------------------------------------------|
A|---------------------------------------------------------------------------------------|
E|---------------------------------------------------------------------------------------|

"...but the way , way I see it"
e|----------------------------------|
B|----------------------------------|
G|---9/11--9/11--9--9/11--9/11--9---|
D|----------------------------------|
A|---7/9---7/9---7--7/9---7/9---7---|
E|----------------------------------|

"Next time you point your finger I might..."
e|--------------------------------------------------------------------|
B|--------------------------------------------------------------------|
G|---6-6-6-6-6-6-6-6-8-8-8-8-8-8-8-8-4-4-4-4-4-4-4-4--9-9-8-8-8-8-8---|
D|--------------------------------------------------------------------|
A|---4-4-4-4-4-4-4-4-6-6-6-6-6-6-6-6-2-2-2-2-2-2-2-2--7-7-6-6-6-6-6---|
E|--------------------------------------------------------------------|

"Next time you point your finger I point you to the mirror"
e|-------------------------------------|
B|-------------------------------------|
G|---6-6-6-6-6-6-6-6-8-8-8-8-8-8-8-8---|
D|-------------------------------------|
A|---4-4-4-4-4-4-4-4-6-6-6-6-6-6-6-6---|
E|-------------------------------------|

"I know you won't believe me..."
e|-------------------|
B|-------------------|
G|---9/11--9/11--9---|
D|-------------------|
A|---7/9---7/9---7---|
E|-------------------|	4x

"Next time you point a finger I might have..."
e|-------------------------------------------------------------------------------------|
B|-------------------------------------------------------------------------------------|
G|---6-6--6-6-6--6-8-8--8-8-8--8-4-4--4-4-4--4-6-6--6-6-6--6-6-6--6-6-6--6-8-8-8-8-8---|
D|-------------------------------------------------------------------------------------|
A|---4-4--4-4-4--4-6-6--6-6-6--6-2-2--2-2-2--2-4-4--4-4-4--4-4-4--4-4-4--4-6-6-6-6-6---|
E|-------------------------------------------------------------------------------------|


_____________________
Third guitar

On solo part (02:58)
e|-------------------------------------------------------------0---0---|
B|---9---9---9---9---9---9---9---9---9---9---9---9---7---7---4---4-----|
G|-----9---9---9---9---9---9---9---9---9---9---9---9---9---9-----------|
D|---------------------------------------------------------------------|
A|---------------------------------------------------------------------|
E|---------------------------------------------------------------------|	4x
Tap to rate this tab
 
# A B C D E F G H I J K L M N O P Q R S T U V W X Y Z