Paramore - Feeling Sorry tab

-------------------------------------------------------------------------------
			     FEELING SORRY - Paramore
-------------------------------------------------------------------------------
Tabbed by: rockett97	
Email: rockett97@hotmail.com

I decided to tab this Paramore song next, 
since there is not a decent one on this site yet.
I think it sounds very accurate. 
I tabbed both guitar parts, just scroll down for guitar 2.

Just email me for questions or whatever.

Tuning: Guitar 1: Drop D - eBGDAD
        Guitar 2: Standard - eBGDAE


Guitar 1 (Taylor)

Intro

e|--------------------------------------------------------------------------------------------|
B|--------------------------------------------------------------------------------------------|
G|-11-11-11-11-11-11/13\9----11-11-11-11-11/13\9---13-13-13-13-13-13-13-13-13-13-13\11--11-11-|
D|-x--x--x--x--x--x--x--x----x--x--x--x--x--x--x---x--x--x--x--x--x--x--x--x--x--x--x---x--x--|
A|-9--9--9--9--9--9-/11\7----9--9--9--9--9-/11\7---11-11-11-11-11-11-11-11-11-11-11-9---9--9--|
D|--------------------------------------------------------------------------------------------|

e|--------------------------------------------------------------------------------------------|
B|--------------------------------------------------------------------------------------------|
G|-11-11-11-11-11-11/13\9----11-11-11-11-11/13\9---13-13-13-13-13-13-13-13-13-13-13\14--14-14-|
D|-x--x--x--x--x--x--x--x----x--x--x--x--x--x--x---x--x--x--x--x--x--x--x--x--x--x--x---x--x--|
A|-9--9--9--9--9--9-/11\7----9--9--9--9--9-/11\7---11-11-11-11-11-11-11-11-11-11-11-16--12-12-|
D|--------------------------------------------------------------------------------------------|

Verse

"We still live in the same town,..."

e|----------------------------------------------------------------------------------|
B|----------------------------------------------------------------------------------|
G|-11-11--11-11-11--11--9--11-11--11-11-11--11--9--6-6--6-6-6--6-6--6-6--6-6--4-4-4-|
D|-11-11--11-11-11--11--9--11-11--11-11-11--11--9--6-6--6-6-6--6-6--6-6--6-6--4-4-4-|
A|-9--9---9--9--9---11--7--9--9---9--9--9---11--7--4-4--4-4-4--4-4--4-4--4-4--2-2-2-|
D|----------------------------------------------------------------------------------|
   x  x   x  x  x   x   x  x  x   x  x  x   x   x  x x  x x x  x x  x x  x x  x x x

"I go to all the same places..."

e|----------------------------------------------------------------------------------|
B|----------------------------------------------------------------------------------|
G|-11-11--11-11-11--11--9--11-11--11-11-11--11--9--6-6--6-6-6--6-6--6-6--6-6--4-4-4-|
D|-11-11--11-11-11--11--9--11-11--11-11-11--11--9--6-6--6-6-6--6-6--6-6--6-6--4-4-4-|
A|-9--9---9--9--9---11--7--9--9---9--9--9---11--7--4-4--4-4-4--4-4--4-4--4-4--2-2-2-|
D|----------------------------------------------------------------------------------|
   x  x   x  x  x   x   x  x  x   x  x  x   x   x  x x  x x x  x x  x x  x x  

Pre-Chorus

"and I'm getting bored..."

e|-0---2---0---7------0---2---0---x--|
B|-0---2---0---9------0---2---0---x--|
G|-2---4---4---9------2---4---4---9--|
D|-2---4---4---7------2---4---4---9--|
A|-0---2---4---7------0---2---4---11-|
D|-x---x---x---7------x---x---x---x--|
(one stroke per chord, listen to the song for the timing)

Chorus

"I feel no sympathy"

e|--------------------------------------------------------|
B|--------------------------------------------------------|
G|--------------------------------------------------------|
D|-2--2-2/7-7-7\2/6/9-9-9---2--2-2/7-7-7/11--11-11\9--9-9-| (x2)
A|-2--2-2/7-7-7\2/6/9-9-9---2--2-2/7-7-7/11--11-11\9--9-9-|
D|-2--2-2/7-7-7\2/6/9-9-9---2--2-2/7-7-7/11--11-11\9--9-9-|

e|--------------------------------------------------------------------------------------------|
B|--------------------------------------------------------------------------------------------|
G|-11-11-11-11-11-11/13\9----11-11-11-11-11/13\9---13-13-13-13-13-13-13-13-13-13-13\11--11-11-|
D|-x--x--x--x--x--x--x--x----x--x--x--x--x--x--x---x--x--x--x--x--x--x--x--x--x--x--x---x--x--|
A|-9--9--9--9--9--9-/11\7----9--9--9--9--9-/11\7---11-11-11-11-11-11-11-11-11-11-11-9---9--9--|
D|--------------------------------------------------------------------------------------------|

e|--------------------------------------------------------------------------------------------|
B|--------------------------------------------------------------------------------------------|
G|-11-11-11-11-11-11/13\9----11-11-11-11-11/13\9---13-13-13-13-13-13-13-13-13-13-13\14--14-14-|
D|-x--x--x--x--x--x--x--x----x--x--x--x--x--x--x---x--x--x--x--x--x--x--x--x--x--x--x---x--x--|
A|-9--9--9--9--9--9-/11\7----9--9--9--9--9-/11\7---11-11-11-11-11-11-11-11-11-11-11-16--12-12-|
D|--------------------------------------------------------------------------------------------|

Verse

"Well, I try not to think of what might happen..."

e|------------------------------------------------------------------------------|
B|------------------------------------------------------------------------------|
G|-11-11--11-11-11--11--9--11-11--11-11-11--11--9--6-6--6-6-6--6-6--6-6--6-6--4-|
D|-11-11--11-11-11--11--9--11-11--11-11-11--11--9--6-6--6-6-6--6-6--6-6--6-6--4-|
A|-9--9---9--9--9---11--7--9--9---9--9--9---11--7--4-4--4-4-4--4-4--4-4--4-4--2-|
D|------------------------------------------------------------------------------|
   x  x   x  x  x   x   x  x  x   x  x  x   x   x  x x  x x x  x x  x x  x x  

"Well, as for me, I got out and I'm on the road"

e|----------------------------------------------------------------------------------|
B|----------------------------------------------------------------------------------|
G|-11-11--11-11-11--11--9--11-11--11-11-11--11--9--6-6--6-6-6--6-6--6-6--6-6--4-4-4-|
D|-11-11--11-11-11--11--9--11-11--11-11-11--11--9--6-6--6-6-6--6-6--6-6--6-6--4-4-4-|
A|-9--9---9--9--9---11--7--9--9---9--9--9---11--7--4-4--4-4-4--4-4--4-4--4-4--2-2-2-|
D|----------------------------------------------------------------------------------|
   x  x   x  x  x   x   x  x  x   x  x  x   x   x  x x  x x x  x x  x x  x x  


Pre-Chorus

"and you know it too, you can't run from your shame"

e|-0---2---0---7------0---2---0---x--|
B|-0---2---0---9------0---2---0---x--|
G|-2---4---4---9------2---4---4---9--|
D|-2---4---4---7------2---4---4---9--|
A|-0---2---4---7------0---2---4---11-|
D|-x---x---x---7------x---x---x---x--|
(one stroke per chord, listen to the song for the timing)

Chorus

"I feel no sympathy"

e|--------------------------------------------------------|
B|--------------------------------------------------------|
G|--------------------------------------------------------|
D|-2--2-2/7-7-7\2/6/9-9-9---2--2-2/7-7-7/11--11-11\9--9-9-| (x2)
A|-2--2-2/7-7-7\2/6/9-9-9---2--2-2/7-7-7/11--11-11\9--9-9-|
D|-2--2-2/7-7-7\2/6/9-9-9---2--2-2/7-7-7/11--11-11\9--9-9-|

Bridge

"And all the best lies, they are told with fingers..."

e|----------------------------------------------------------------------------------|
B|----------------------------------------------------------------------------------|
G|-6-6-6-6-6-6-6-6-6-6-6-6-8-8-8-8-8-8-8-8-8-8-8-8-9-9-9-11-11-11-14-14-14-13-13-13-|
D|-x-x-x-x-x-x-x-x-x-x-x-x-x-x-x-x-x-x-x-x-x-x-x-x-x-x-x-x--x--x--x--x--x--x--x--x--|
A|-4-4-4-4-4-4-4-4-4-4-4-4-6-6-6-6-6-6-6-6-6-6-6-6-7-7-7-9--9--9--12-12-12-11-11-11-|
D|----------------------------------------------------------------------------------|

"...tied, so cross them tight"

e|----------------------------------------------------------------------------------|
B|----------------------------------------------------------------------------------|
G|-6-6-6-6-6-6-6-6-6-6-6-6-8-8-8-8-8-8-8-8-8-8-8-8-9-9-9-11-11-11-14-14-14-13-13-13-|
D|-x-x-x-x-x-x-x-x-x-x-x-x-x-x-x-x-x-x-x-x-x-x-x-x-x-x-x-x--x--x--x--x--x--x--x--x--|
A|-4-4-4-4-4-4-4-4-4-4-4-4-6-6-6-6-6-6-6-6-6-6-6-6-7-7-7-9--9--9--12-12-12-11-11-11-|
D|----------------------------------------------------------------------------------|

"(Won't you promise me) tonight"

e|-------------------------------------------------------------|
B|-------------------------------------------------------------|
G|-6-6-6-6-6-6-6-6-6-6-6-6-11-11-11-11-11-11-11-11-11-11-11-11-|
D|-x-x-x-x-x-x-x-x-x-x-x-x-x--x--x--x--x--x--x--x--x--x--x--x--|
A|-4-4-4-4-4-4-4-4-4-4-4-4-9--9--9--9--9--9--9--9--9--9--9--9--|
D|-------------------------------------------------------------|
(strum these double as much'

"I feel no sympathy"

e|---------------------------------------------------------------|
B|---------------------------------------------------------------|
G|---------------------------------------------------------------|
D|-2--2-2/7-7-7\2-2/6-6/9-9-9---2--2-2/7-7-7/11-11--11-11\9--9-9-|
A|-2--2-2/7-7-7\2-2/6-6/9-9-9---2--2-2/7-7-7/11-11--11-11\9--9-9-|
D|-2--2-2/7-7-7\2-2/6-6/9-9-9---2--2-2/7-7-7/11-11--11-11\9--9-9-|
   x  x x x x x x x x x x x x   x  x x x x x x  x   x  x  x  x x 

"You barely get by"

e|---------------------------------------------------|
B|---------------------------------------------------|
G|--------------------------------------------9/11\8-|
D|-2--2-2/7-7-7\2-2/6-6/9-9-9---2--2-2/7-7-7--x-x--x-|
A|-2--2-2/7-7-7\2-2/6-6/9-9-9---2--2-2/7-7-7--7/9-\6-|
D|-2--2-2/7-7-7\2-2/6-6/9-9-9---2--2-2/7-7-7---------|
   x  x x x x x x x x x x x x   x  x x x x x

Chorus

"I feel no sympathy"

e|--------------------------------------------------------|
B|--------------------------------------------------------|
G|--------------------------------------------------------|
D|-2--2-2/7-7-7\2/6/9-9-9---2--2-2/7-7-7/11--11-11\9--9-9-| (x2)
A|-2--2-2/7-7-7\2/6/9-9-9---2--2-2/7-7-7/11--11-11\9--9-9-|
D|-2--2-2/7-7-7\2/6/9-9-9---2--2-2/7-7-7/11--11-11\9--9-9-|

e|--------------------------------------------------------------------------------------------|
B|--------------------------------------------------------------------------------------------|
G|-11-11-11-11-11-11/13\9----11-11-11-11-11/13\9---13-13-13-13-13-13-13-13-13-13-13\11--11-11-|
D|-x--x--x--x--x--x--x--x----x--x--x--x--x--x--x---x--x--x--x--x--x--x--x--x--x--x--x---x--x--|
A|-9--9--9--9--9--9-/11\7----9--9--9--9--9-/11\7---11-11-11-11-11-11-11-11-11-11-11-9---9--9--|
D|--------------------------------------------------------------------------------------------|

e|--------------------------------------------------------------------------------------------|
B|--------------------------------------------------------------------------------------------|
G|-11-11-11-11-11-11/13\9----11-11-11-11-11/13\9---13-13-13-13-13-13-13-13-13-13-13\14--14-14-|
D|-x--x--x--x--x--x--x--x----x--x--x--x--x--x--x---x--x--x--x--x--x--x--x--x--x--x--x---x--x--|
A|-9--9--9--9--9--9-/11\7----9--9--9--9--9-/11\7---11-11-11-11-11-11-11-11-11-11-11-16--12-12-|
D|--------------------------------------------------------------------------------------------|


Guitar 2 (formerly Josh)

Intro

e|-0-0-0-0-0-0-0-0-0-0-0-0-0-0--2-2-2--4-4-4-4-4-4-4-4-4-4-4-4-4-4--2-2-2-|
B|-0-0-0-0-0-0-0-0-0-0-0-0-0-0--2-2-2--5-5-5-5-5-5-5-5-5-5-5-5-5-5--4-4-4-|
G|-1-1-1-1-1-1-1-1-1-1-1-1-1-1--2-2-2--6-6-6-6-6-6-6-6-6-6-6-6-6-6--4-4-4-|(x2)
D|-2-2-2-2-2-2-2-2-2-2-2-2-2-2--4-4-4--6-6-6-6-6-6-6-6-6-6-6-6-6-6--4-4-4-|
A|-2-2-2-2-2-2-2-2-2-2-2-2-2-2--4-4-4--4-4-4-4-4-4-4-4-4-4-4-4-4-4--2-2-2-|
E|-0-0-0-0-0-0-0-0-0-0-0-0-0-0--2-2-2--x-x-x-x-x-x-x-x-x-x-x-x-x-x--x-x-x-|

Verse

"We still live in the same town"

e|----------------------------------------------------------------------|
B|----------------------------------------------------------------------|
G|-------------------------------------6-6--6-6-6--6-6--6-6--6-6--4-4-4-|
D|-2-2--2-2-2--2-2--2-2--2-2-2--6-6-6--6-6--6-6-6--6-6--6-6--6-6--4-4-4-|
A|-2-2--2-2-2--2-2--2-2--2-2-2--6-6-6--4-4--4-4-4--4-4--4-4--4-4--2-2-2-|
E|-0-0--0-0-0--0-0--0-0--0-0-0--4-4-4-----------------------------------|
   x x  x x x  x x  x x  x x x  x x x  x x  x x x  x x  x x  x x  x x x

"I go to all the same places"

e|----------------------------------------------------------------------|
B|----------------------------------------------------------------------|
G|-------------------------------------6-6--6-6-6--6-6--6-6--6-6--4-4-4-|
D|-2-2--2-2-2--2-2--2-2--2-2-2--6-6-6--6-6--6-6-6--6-6--6-6--6-6--4-4-4-|
A|-2-2--2-2-2--2-2--2-2--2-2-2--6-6-6--4-4--4-4-4--4-4--4-4--4-4--2-2-2-|
E|-0-0--0-0-0--0-0--0-0--0-0-0--4-4-4-----------------------------------|
   x x  x x x  x x  x x  x x x  x x x  x x  x x x  x x  x x  x x  

Pre-Chorus

"And I'm getting bored..."

e|-0-0-0-0-0-0--0-0-0-0-0-0--0-0-0-0-0-0--0-0-0-0-0-0-|
B|-0-0-0-0-0-0--0-0-0-0-0-0--0-0-0-0-0-0--0-0-0-0-0-0-|
G|-4-4-4-4-4-4--4-4-4-4-4-4--4-4-4-4-4-4--4-4-4-4-4-4-|
D|-4-4-4-4-4-4--4-4-4-4-4-4--4-4-4-4-4-4--4-4-4-4-4-4-|
A|-0-0-0-0-0-0--2-2-2-2-2-2--4-4-4-4-4-4--2-2-2-2-2-2-|
E|-x-x-x-x-x-x--x-x-x-x-x-x--x-x-x-x-x-x--x-x-x-x-x-x-|

e|-0-0-0-0-0-0--0-0-0-0-0-0--0-0-0-0-0-0--------------|
B|-0-0-0-0-0-0--0-0-0-0-0-0--0-0-0-0-0-0--------------|
G|-4-4-4-4-4-4--4-4-4-4-4-4--4-4-4-4-4-4--9-9-9-9-9-9-|
D|-4-4-4-4-4-4--4-4-4-4-4-4--4-4-4-4-4-4--9-9-9-9-9-9-|
A|-0-0-0-0-0-0--2-2-2-2-2-2--4-4-4-4-4-4--7-7-7-7-7-7-|
E|-x-x-x-x-x-x--x-x-x-x-x-x--x-x-x-x-x-x--------------|

Chorus

"I feel no sympathy"

e|-------------------------------------------------------------|
B|-9^9-12-------------9^9-12----------9^9-12-------------------|
G|----------------------------8-8-8---------------------9-8-11-|
D|---------11-11-11---------------------------11-11-11---------|
A|-------------------------------------------------------------|
E|-------------------------------------------------------------|

e|-------------------------------------------------------------|
B|-9^9-12-------------9^9-12----------9^9-12-------------------|
G|----------------------------8-8-8---------------------9-11-8-|
D|---------11-11-11---------------------------11-11-11---------|
A|-------------------------------------------------------------|
E|-------------------------------------------------------------|

e|-0-0-0-0-0-0-0-0-0-0-0-0-0-0--2-2-2--4-4-4-4-4-4-4-4-4-4-4-4-4-4--2-2-2-|
B|-0-0-0-0-0-0-0-0-0-0-0-0-0-0--2-2-2--5-5-5-5-5-5-5-5-5-5-5-5-5-5--4-4-4-|
G|-1-1-1-1-1-1-1-1-1-1-1-1-1-1--2-2-2--6-6-6-6-6-6-6-6-6-6-6-6-6-6--4-4-4-|(x2)
D|-2-2-2-2-2-2-2-2-2-2-2-2-2-2--4-4-4--6-6-6-6-6-6-6-6-6-6-6-6-6-6--4-4-4-|
A|-2-2-2-2-2-2-2-2-2-2-2-2-2-2--4-4-4--4-4-4-4-4-4-4-4-4-4-4-4-4-4--2-2-2-|
E|-0-0-0-0-0-0-0-0-0-0-0-0-0-0--2-2-2--x-x-x-x-x-x-x-x-x-x-x-x-x-x--x-x-x-|

Verse

"I try not to think of what might happen"

e|------------------------------------------------------------------|
B|------------------------------------------------------------------|
G|-------------------------------------6-6--6-6-6--6-6--6-6--6-6--4-|
D|-2-2--2-2-2--2-2--2-2--2-2-2--6-6-6--6-6--6-6-6--6-6--6-6--6-6--4-|
A|-2-2--2-2-2--2-2--2-2--2-2-2--6-6-6--4-4--4-4-4--4-4--4-4--4-4--2-|
E|-0-0--0-0-0--0-0--0-0--0-0-0--4-4-4-------------------------------|
   x x  x x x  x x  x x  x x x  x x x  x x  x x x  x x  x x  x x  

"As for me, I got out and I'm on the road"

e|----------------------------------------------------------------------|
B|----------------------------------------------------------------------|
G|-------------------------------------6-6--6-6-6--6-6--6-6--6-6--4-4-4-|
D|-2-2--2-2-2--2-2--2-2--2-2-2--6-6-6--6-6--6-6-6--6-6--6-6--6-6--4-4-4-|
A|-2-2--2-2-2--2-2--2-2--2-2-2--6-6-6--4-4--4-4-4--4-4--4-4--4-4--2-2-2-|
E|-0-0--0-0-0--0-0--0-0--0-0-0--4-4-4-----------------------------------|
   x x  x x x  x x  x x  x x x  x x x  x x  x x x  x x  x x  x x  

"And you know it too)

e|-0-0-0-0-0-0--0-0-0-0-0-0--0-0-0-0-0-0--0-0-0-0-0-0-|
B|-0-0-0-0-0-0--0-0-0-0-0-0--0-0-0-0-0-0--0-0-0-0-0-0-|
G|-4-4-4-4-4-4--4-4-4-4-4-4--4-4-4-4-4-4--4-4-4-4-4-4-|
D|-4-4-4-4-4-4--4-4-4-4-4-4--4-4-4-4-4-4--4-4-4-4-4-4-|
A|-0-0-0-0-0-0--2-2-2-2-2-2--4-4-4-4-4-4--2-2-2-2-2-2-|
E|-x-x-x-x-x-x--x-x-x-x-x-x--x-x-x-x-x-x--x-x-x-x-x-x-|

"Time keeps passing by"

e|-0-0-0-0-0-0--0-0-0-0-0-0--0-0-0-0-0-0--------------|
B|-0-0-0-0-0-0--0-0-0-0-0-0--0-0-0-0-0-0--------------|
G|-4-4-4-4-4-4--4-4-4-4-4-4--4-4-4-4-4-4--9-9-9-9-9-9-|
D|-4-4-4-4-4-4--4-4-4-4-4-4--4-4-4-4-4-4--9-9-9-9-9-9-|
A|-0-0-0-0-0-0--2-2-2-2-2-2--4-4-4-4-4-4--7-7-7-7-7-7-|
E|-x-x-x-x-x-x--x-x-x-x-x-x--x-x-x-x-x-x--------------|

Chorus

"I feel no sympathy"

e|-------------------------------------------------------------|
B|-9^9-12-------------9^9-12----------9^9-12-------------------|
G|----------------------------8-8-8---------------------9-8-11-|
D|---------11-11-11---------------------------11-11-11---------|
A|-------------------------------------------------------------|
E|-------------------------------------------------------------|

"You barely get by" 

e|-------------------------------------------------------------|
B|-9^9-12-------------9^9-12----------9^9-12-------------------|
G|----------------------------8-8-8---------------------9-11-8-|
D|---------11-11-11---------------------------11-11-11---------|
A|-------------------------------------------------------------|
E|-------------------------------------------------------------|

Bridge

"All the best lies, they are told with fingers tied"

e|----------------------------------------------------------------------------|
B|----------------------------------------------------------------------------|
G|-6-6-6-6-6-6-6-6-6-6-6-6-8-8-8-8-8-8-8-8-8-8-8-8-9-9-9-11-11-11-4-4-4-4-4-4-|
D|-x-x-x-x-x-x-x-x-x-x-x-x-x-x-x-x-x-x-x-x-x-x-x-x-x-x-x-x--x--x--x-x-x-x-x-x-|
A|-4-4-4-4-4-4-4-4-4-4-4-4-6-6-6-6-6-6-6-6-6-6-6-6-7-7-7-9--9--9--2-2-2-2-2-2-|
D|----------------------------------------------------------------------------|

"So cross them tight"

e|----------------------------------------------------------------------------|
B|----------------------------------------------------------------------------|
G|-6-6-6-6-6-6-6-6-6-6-6-6-8-8-8-8-8-8-8-8-8-8-8-8-9-9-9-11-11-11-4-4-4-4-4-4-|
D|-x-x-x-x-x-x-x-x-x-x-x-x-x-x-x-x-x-x-x-x-x-x-x-x-x-x-x-x--x--x--x-x-x-x-x-x-|
A|-4-4-4-4-4-4-4-4-4-4-4-4-6-6-6-6-6-6-6-6-6-6-6-6-7-7-7-9--9--9--2-2-2-2-2-2-|
D|----------------------------------------------------------------------------|

"...tonight"

e|-------------------------------------------------------------|
B|-------------------------------------------------------------|
G|-6-6-6-6-6-6-6-6-6-6-6-6-11-11-11-11-11-11-11-11-11-11-11-11-|
D|-x-x-x-x-x-x-x-x-x-x-x-x-x--x--x--x--x--x--x--x--x--x--x--x--|
A|-4-4-4-4-4-4-4-4-4-4-4-4-9--9--9--9--9--9--9--9--9--9--9--9--|
D|-------------------------------------------------------------|
(strum these double as much)

"I feel no sympathy"

e|-------------------------------------------------------------------------|
B|-------------------------------------16-16-16-16-16-16-16-16-16-16-16-16-|
G|-16-16-16-16-16-16-16-16-16-16-16-16-16-16-16-16-16-16-16-16-16-16-16-16-|
D|-16-16-16-16-16-16-16-16-16-16-16-16-14-14-14-14-14-14-14-14-14-14-14-14-|
A|-14-14-14-14-14-14-14-14-14-14-14-14-14-14-14-14-14-14-14-14-14-14-14-14-|
E|-------------------------------------------------------------------------|

Chorus

e|-------------------------------------------------------------|
B|-9^9-12-------------9^9-12----------9^9-12-------------------|
G|----------------------------8-8-8---------------------9-8-11-|
D|---------11-11-11---------------------------11-11-11---------|
A|-------------------------------------------------------------|
E|-------------------------------------------------------------|

"You barely get by" 

e|-12h14-12-12------------------------12--------------------9h11-----------|
B|--------------12-12h14-12---9-9h10------10-10p9------12---------10p9-----|
G|-------------------------------------------------11-------------------11-|
D|-------------------------------------------------------------------------|
A|-------------------------------------------------------------------------|
E|-------------------------------------------------------------------------|

e|-0-0-0-0-0-0-0-0-0-0-0-0-0-0--2-2-2--4-4-4-4-4-4-4-4-4-4-4-4-4-4--2-2-2-|
B|-0-0-0-0-0-0-0-0-0-0-0-0-0-0--2-2-2--5-5-5-5-5-5-5-5-5-5-5-5-5-5--4-4-4-|
G|-1-1-1-1-1-1-1-1-1-1-1-1-1-1--2-2-2--6-6-6-6-6-6-6-6-6-6-6-6-6-6--4-4-4-|(x2)
D|-2-2-2-2-2-2-2-2-2-2-2-2-2-2--4-4-4--6-6-6-6-6-6-6-6-6-6-6-6-6-6--4-4-4-|
A|-2-2-2-2-2-2-2-2-2-2-2-2-2-2--4-4-4--4-4-4-4-4-4-4-4-4-4-4-4-4-4--2-2-2-|
E|-0-0-0-0-0-0-0-0-0-0-0-0-0-0--2-2-2--x-x-x-x-x-x-x-x-x-x-x-x-x-x--x-x-x-|

Please RATE/COMMENT!

************************************

Legenda

| /   slide up
| \   slide down
| ~   vibrato
| x   (Palm)Mute note
| ^   Bend string
| h hammer-on 
| p pull-off 


************************************
Tap to rate this tab
 
# A B C D E F G H I J K L M N O P Q R S T U V W X Y Z