Paramore - Here We Go Again Acoustic tab

Artist: Paramore
Song: Here We Go Again (Acoustic)
Album: All We Know Is Falling
Tuning: Drop D (e B G D A D)

Reference: http://www.youtube.com/watch?v=pGF1s_7J33o

Intro

e |-------------------------------------|
B |--16-16--11/-13--9--8-8-8/-9-9-------|
G |-------------------------------------|
D |--14-14--9/--11--7--6-6-6/-7-7-------|
A |-------------------------------------| 	
D |-------------------------------------|

e |-------------------------------------|
B |--16-16--11/-13--9--8-4-4/-6-6-------|
G |-------------------------------------|
D |--14-14--9/--11--7--6-2-2/-4-4-------|
A |-------------------------------------| 	
D |-------------------------------------|

Verse 1(x7)

e |--0-----x--------------|
B |--9-----0--------------|
G |--9-----9--------------|
D |--7-----x--------------|
A |--7-----11-------------| 	
D |--7-----11-------------|

And here we go again
With all the things we said
And not a minute spent
To think that we'd regret
So we just take it back,
These words and hold our breath
Forget the things we swore we 

Chorus (x4)

e |--0----x----0---0--------|
B |--0----0----0---0--------|
G |--9----9----8---9--------|
D |--9----x----x---x--------|
A |--7----11---6---7--------| 	
D |--7----11---x---x--------|

... meant
I'll write you just to let you know that I'm alright
Can't say I'm sad to see you go
Cause I'm not. (No, I'm not) 
Well, I'm not.

Intro/Solo

e |-------------------------------------|
B |--16-16--11/-13--9--8-8-8/-9-9-------|
G |-------------------------------------|
D |--14-14--9/--11--7--6-6-6/-7-7-------|
A |-------------------------------------| 	
D |-------------------------------------|

e |-------------------------------------|
B |--16-16--11/-13--9--8-4-4/-6-6-------|
G |-------------------------------------|
D |--14-14--9/--11--7--6-2-2/-4-4-------|
A |-------------------------------------| 	
D |-------------------------------------|


Verse 2 (x7)

e |--0-----x--------------|
B |--9-----0--------------|
G |--9-----9--------------|
D |--7-----x--------------|
A |--7-----11-------------| 	
D |--7-----11-------------|

And here we go again
With all the things we did
And now I'm wondering
Just who would I have been
To be the one attached
At all times to your hip?
Forget the things we swore we meant

Chorus 

Intro/Bridge/Solo (x3)

e |-------------------------------------|
B |--16-16--11/-13--9--8-8-8/-9-9-------|
G |-------------------------------------|
D |--14-14--9/--11--7--6-6-6/-7-7-------|
A |-------------------------------------| 	
D |-------------------------------------|

e |-------------------------------------|
B |--16-16--11/-13--9--8-4-4/-6-6-------|
G |-------------------------------------|
D |--14-14--9/--11--7--6-2-2/-4-4-------|
A |-------------------------------------| 	
D |-------------------------------------|

Interlude

e |--0-----0-------------|
B |--0-----0-------------|
G |--9-----8-------------|
D |--x-----x-------------|
A |--7-----6-------------| 	
D |--x-----x-------------|

Chorus 

Outro (Strum)

e |--0----x----0---0--------|
B |--0----0----0---9--------|
G |--9----9----9---9--------|
D |--9----x----10--7--------|
A |--7----11---7---7--------| 	
D |--7----11---7---7--------|

Tap to rate this tab
 
# A B C D E F G H I J K L M N O P Q R S T U V W X Y Z