Paramore - The Only Exception tab

-----------------------------------------------------------------------------
			     The Only Exception - Paramore
-----------------------------------------------------------------------------
Tabbed by: Weirdbag

Tuning: Standard E

Intro/Verse   6x
e|-------------------------------------------------------------------------|
B|---------------------------------10-10-10-10-10-10-10-10-9-9-9-9-9-9-9-9-|
G|-8-8-8-8-8-8-8-8-8-8-8-8-8-8-8-8-11-11-11-11-11-11-11-11-8-8-8-8-8-8-8-8-|
D|-9-9-9-9-9-9-9-9-9-9-9-9-9-9-9-9-11-11-11-11-11-11-11-11-9-9-9-9-9-9-9-9-|
A|-9-9-9-9-9-9-9-9-9-9-9-9-9-9-9-9-9--9--9--9--9--9--9--9--7-7-7-7-7-7-7-7-|
E|-7-7-7-7-7-7-7-7-7-7-7-7-7-7-7-7-----------------------------------------|

Lead Guitar (Play this the first 2 and the last 2 times of the Intro/verse) 
            ( So: The 1st, 2nd, not 3rd, not 4th, the 5th and the 6th time) 
e|-11~-----------------------------9-~---------------------7~--------------|
B|-12~---------------------------- 10~---------------------9~--------------|
G|-------------------------------------------------------------------------|
D|-------------------------------------------------------------------------|
A|-------------------------------------------------------------------------|
E|-------------------------------------------------------------------------|



Chorus: 2x
e|-------------------------------------------------------------------------|
B|---------------------------------10-10-10-10-10-10-10-10-9-9-9-9-9-9-9-9-|
G|-8-8-8-8-8-8-8-8-8-8-8-8-8-8-8-8-11-11-11-11-11-11-11-11-8-8-8-8-8-8-8-8-|
D|-9-9-9-9-9-9-9-9-9-9-9-9-9-9-9-9-11-11-11-11-11-11-11-11-9-9-9-9-9-9-9-9-|
A|-9-9-9-9-9-9-9-9-9-9-9-9-9-9-9-9-9--9--9--9--9--9--9--9--7-7-7-7-7-7-7-7-|
E|-7-7-7-7-7-7-7-7-7-7-7-7-7-7-7-7-----------------------------------------|

Lead Guitar: 2x
e|-7-7-7-7-7-7-7-7-7-7-7-7-7-7-7-7-9-9-9-9-9-9-9-9-11-11-11-11-11-11-11-11-|
B|-------------------------------------------------------------------------|
G|-------------------------------------------------------------------------|
D|-------------------------------------------------------------------------|
A|-------------------------------------------------------------------------|
E|-------------------------------------------------------------------------|

Post Chorus:
e|-------------------------------------------------------------------------|
B|-------------------------------------------------------------------------|
G|-8-8-8-8-8-8-8-8-8-8-8-8-8-8-8-8-----------------------------------------|
D|-9-9-9-9-9-9-9-9-9-9-9-9-9-9-9-9-----------------------------------------|
A|-9-9-9-9-9-9-9-9-9-9-9-9-9-9-9-9-----------------------------------------| 
E|-7-7-7-7-7-7-7-7-7-7-7-7-7-7-7-7-----------------------------------------|

Lead Guitar:
e|-11~---------------------------------------------------------------------|
B|-12~---------------------------------------------------------------------|
G|-------------------------------------------------------------------------|
D|-------------------------------------------------------------------------|
A|-------------------------------------------------------------------------|
E|-------------------------------------------------------------------------|

Verse x4
e|-------------------------------------------------------------------------|
B|---------------------------------10-10-10-10-10-10-10-10-9-9-9-9-9-9-9-9-|
G|-8-8-8-8-8-8-8-8-8-8-8-8-8-8-8-8-11-11-11-11-11-11-11-11-8-8-8-8-8-8-8-8-|
D|-9-9-9-9-9-9-9-9-9-9-9-9-9-9-9-9-11-11-11-11-11-11-11-11-9-9-9-9-9-9-9-9-|
A|-9-9-9-9-9-9-9-9-9-9-9-9-9-9-9-9-9--9--9--9--9--9--9--9--7-7-7-7-7-7-7-7-|
E|-7-7-7-7-7-7-7-7-7-7-7-7-7-7-7-7-----------------------------------------|

Lead Guitar: 4x (every time)
e|-11~-----------------------------9-~---------------------7~--------------|
B|-12~---------------------------- 10~---------------------9~--------------|
G|-------------------------------------------------------------------------|
D|-------------------------------------------------------------------------|
A|-------------------------------------------------------------------------|
E|-------------------------------------------------------------------------|

(... and then)
e|-------------------------------------------------------------------------|
B|-9-9-9-9-9-9-9-9---------------------------------------------------------|
G|-8-8-8-8-8-8-8-8---------------------------------------------------------|
D|-9-9-9-9-9-9-9-9---------------------------------------------------------|
A|-7-7-7-7-7-7-7-7---------------------------------------------------------|
E|-------------------------------------------------------------------------|

Lead Guitar:
e|-7~----------------------------------------------------------------------|
B|-9~----------------------------------------------------------------------|
G|-------------------------------------------------------------------------|
D|-------------------------------------------------------------------------|
A|-------------------------------------------------------------------------|
E|-------------------------------------------------------------------------|



Chorus: 2x
e|-------------------------------------------------------------------------|
B|---------------------------------10-10-10-10-10-10-10-10-9-9-9-9-9-9-9-9-|
G|-8-8-8-8-8-8-8-8-8-8-8-8-8-8-8-8-11-11-11-11-11-11-11-11-8-8-8-8-8-8-8-8-|
D|-9-9-9-9-9-9-9-9-9-9-9-9-9-9-9-9-11-11-11-11-11-11-11-11-9-9-9-9-9-9-9-9-|
A|-9-9-9-9-9-9-9-9-9-9-9-9-9-9-9-9-9--9--9--9--9--9--9--9--7-7-7-7-7-7-7-7-|
E|-7-7-7-7-7-7-7-7-7-7-7-7-7-7-7-7-----------------------------------------|

Lead Guitar: 2x
e|-7-7-7-7-7-7-7-7-7-7-7-7-7-7-7-7-9-9-9-9-9-9-9-9-11-11-11-11-11-11-11-11-|
B|-------------------------------------------------------------------------|
G|-------------------------------------------------------------------------|
D|-------------------------------------------------------------------------|
A|-------------------------------------------------------------------------|
E|-------------------------------------------------------------------------|

Bridge: 2x
e|-------------------------------------------------------------------------|
B|-5-5-5-5-5-5-5-5-5-5-5-5-5-5-5-5-----------------------------------------|
G|-6-6-6-6-6-6-6-6-6-6-6-6-6-6-6-6-8-8-8-8-8-8-8-8-3-3-3-3-3-3-3-3---------|
D|-6-6-6-6-6-6-6-6-6-6-6-6-6-6-6-6-9-9-9-9-9-9-9-9-4-4-4-4-4-4-4-4---------|
A|-4-4-4-4-4-4-4-4-4-4-4-4-4-4-4-4-9-9-9-9-9-9-9-9-4-4-4-4-4-4-4-4---------|
E|---------------------------------7-7-7-7-7-7-7-7-2-2-2-2-2-2-2-2---------|

Lead Guitar (Solo)
e|---16~~~~14~~~~------14~~~~---16~~~~14~~~~-------------------------------|
B|---------------11/12-----------------------11-12-------------------------|
G|-------------------------------------------------11~~~~------------------|
D|-------------------------------------------------------------------------|
A|-------------------------------------------------------------------------|
E|-------------------------------------------------------------------------|

e|---16~~~~14~~~~------14~~~~---16~~~~14~~~~-------------------------------|
B|---------------11/12-----------------------11-12-------------------------|
G|-------------------------------------------------11~~~~------------------|
D|-------------------------------------------------------------------------|
A|-------------------------------------------------------------------------|
E|-------------------------------------------------------------------------|

Bridge: 2x
e|-------------------------------------------------------------------------|
B|-5-5-5-5-5-5-5-5-5-5-5-5-5-5-5-5-----------------------------------------|
G|-6-6-6-6-6-6-6-6-6-6-6-6-6-6-6-6-8-8-8-8-8-8-8-8-3-3-3-3-3-3-3-3---------|
D|-6-6-6-6-6-6-6-6-6-6-6-6-6-6-6-6-9-9-9-9-9-9-9-9-4-4-4-4-4-4-4-4---------|
A|-4-4-4-4-4-4-4-4-4-4-4-4-4-4-4-4-9-9-9-9-9-9-9-9-4-4-4-4-4-4-4-4---------|
E|---------------------------------7-7-7-7-7-7-7-7-2-2-2-2-2-2-2-2---------|

Lead Guitar:
e|-------------------------------------------------------------------------|
B|-------------------------------------------------------------------------|
G|-------------------------------------------------------------------------|
D|-14-14-14-13-13-13-11-11-11-11-13~---9--9--9--11-11-11--8--8--8--8--8--8-|
A|-------------------------------------------------------------------------|
E|-------------------------------------------------------------------------|

e|-------------------------------------------------------------------------|
B|-------------------------------------------------------------------------|
G|-9--9--9--8--8--8--11-11-11-11-11~---------------------------------------|
D|-------------------------------------9--9--9--11-11-11--8--8--8--8--8--8-|
A|-------------------------------------------------------------------------|
E|-------------------------------------------------------------------------|

(and then...)
e|-------------------------------------------------------------------------|
B|-9-9-9-9-9-9-9-9~--------------------------------------------------------|
G|-9-9-9-9-9-9-9-9~--------------------------------------------------------|
D|-9-9-9-9-9-9-9-9~--------------------------------------------------------|
A|-7-7-7-7-7-7-7-7~--------------------------------------------------------|
E|-------------------------------------------------------------------------|

Lead Guitar:
e|---------------11~-------------------------------------------------------|
B|---------------12~-------------------------------------------------------|
G|-------------------------------------------------------------------------|
D|-9~----------------------------------------------------------------------|
A|-------------------------------------------------------------------------|
E|-------------------------------------------------------------------------|

Chorus: 2x
e|-------------------------------------------------------------------------|
B|---------------------------------10-10-10-10-10-10-10-10-9-9-9-9-9-9-9-9-|
G|-8-8-8-8-8-8-8-8-8-8-8-8-8-8-8-8-11-11-11-11-11-11-11-11-8-8-8-8-8-8-8-8-|
D|-9-9-9-9-9-9-9-9-9-9-9-9-9-9-9-9-11-11-11-11-11-11-11-11-9-9-9-9-9-9-9-9-|
A|-9-9-9-9-9-9-9-9-9-9-9-9-9-9-9-9-9--9--9--9--9--9--9--9--7-7-7-7-7-7-7-7-|
E|-7-7-7-7-7-7-7-7-7-7-7-7-7-7-7-7-----------------------------------------|

Lead Guitar: (only 2nd time)
e|-11-11-11-11-14-14-14-14-11-11-11-12-12-12-11-11-11-11-11-11-------------|
b|-12-12-12-12-12-12-12-12-------------------------------------------------|
g|-------------------------------------------------------------------------|
d|-------------------------------------------------------------------------|
a|-------------------------------------------------------------------------|
E|-------------------------------------------------------------------------|

Chorus: 2x
e|-------------------------------------------------------------------------|
B|---------------------------------10-10-10-10-10-10-10-10-9-9-9-9-9-9-9-9-|
G|-8-8-8-8-8-8-8-8-8-8-8-8-8-8-8-8-11-11-11-11-11-11-11-11-8-8-8-8-8-8-8-8-|
D|-9-9-9-9-9-9-9-9-9-9-9-9-9-9-9-9-11-11-11-11-11-11-11-11-9-9-9-9-9-9-9-9-|
A|-9-9-9-9-9-9-9-9-9-9-9-9-9-9-9-9-9--9--9--9--9--9--9--9--7-7-7-7-7-7-7-7-|
E|-7-7-7-7-7-7-7-7-7-7-7-7-7-7-7-7-----------------------------------------|

Lead Guitar:
e|-7-7-7-7-7-7-7-7-7-7-7-7-7-7-7-7-9-9-9-9-9-9-9-9-11-11-11-11-11-11-11-11-|
B|-------------------------------------------------------------------------|
G|-------------------------------------------------------------------------|
D|-------------------------------------------------------------------------|
A|-------------------------------------------------------------------------|
E|-------------------------------------------------------------------------|

e|-7-7-7-7-7-7-7-7-7-7-7-7-7-7-7-7-14-14-14-12-12-12-11-11-11-11-11-11-----|
B|-------------------------------------------------------------------------|
G|-------------------------------------------------------------------------|
D|-------------------------------------------------------------------------|
A|-------------------------------------------------------------------------|
E|-------------------------------------------------------------------------|

Outro: 2x

e|-------------------------------------------------------------------------|
B|-----------------9-9-9-9-9-9-9-9-----------------------------------------|
G|-6-6-6-6-6-6-6-6-9-9-9-9-9-9-9-9-8-8-8-8-8-8-8-8-8-8-8-8-8-8-8-8---------|
D|-7-7-7-7-7-7-7-7-9-9-9-9-9-9-9-9-9-9-9-9-9-9-9-9-9-9-9-9-9-9-9-9---------|
A|-7-7-7-7-7-7-7-7-7-7-7-7-7-7-7-7-9-9-9-9-9-9-9-9-9-9-9-9-9-9-9-9---------|
E|-5-5-5-5-5-5-5-5-----------------7-7-7-7-7-7-7-7-7-7-7-7-7-7-7-7---------|

Lead Guitar: (Only 1st time)
e|--9~---------------7~---------------11~----------------------------------|
B|-10~---------------9~---------------12~----------------------------------|
G|-------------------------------------------------------8-h9--9--9-p8~----|
D|-------------------------------------------------------------------------|
A|-------------------------------------------------------------------------|
E|-------------------------------------------------------------------------|


Hope you like it!
Tap to rate this tab
 
# A B C D E F G H I J K L M N O P Q R S T U V W X Y Z