Paramore - Emergency Acoustic tab

Okay, so I'm pretty sure this is accurate. 
I've played along with the song and they sound alike. 
This is the acoustic version, so some of it isn't going to sound exactly like the song. 
This is just the first guitar. 
The tuning is in Drop D.

x = open
\ = strum down
/= strum up

    1.)I think we have an emergency
    2.)So are you listening?
    3.)This is an emergency
E|------------9--------9---------9-----------------|
B|------7--------7--------7---------7------7-------|
G|---------9--------9---------9---------9----------|
D|---x---------------------------------------------|
A|-------------------------------------------------|
D|-------------------------------------------------|


      1.)I think we have an emergency
      2.)So are you watching me?
      3.)So are you listening?
E|------------7--------7---------7-----------------|
B|------7--------7--------7---------7------7-------|
G|---------9--------9---------9---------9----------|
D|---x---------------------------------------------|
A|-------------------------------------------------|
D|-------------------------------------------------|

    1&2.)If you thought I'd leave then you were wrong
      3.)And I can't pretend
E|---------------------------------------------------|
B|---------------------------------------------------|
G|---------------------------------------------------|
D|--2\-2/-2\-2/----4\-4\-4\-4\----2\-2/-2/-----------|
A|--2\-2/-2\-2/----4\-4\-4\-4\----2\-2/-2/-----------|
D|--2\-2/-2\-2/----4\-4\-4\-4\----2\-2/-2/-----------|


    1&2.)Cause I won't stop holding on
      3.)That I don't see this
E|---------------------------------------------------|
B|---------------------------------------------------|
G|---------------------------------------------------|
D|--2\-2/-2\-2/----4\-4\-4\-4\----2\-2/-2/-----------|
A|--2\-2/-2\-2/----4\-4\-4\-4\----2\-2/-2/-----------|
D|--2\-2/-2\-2/----4\-4\-4\-4\----2\-2/-2/-----------|
      
   ^Play that 4 times. The first time you play this part it's without lyrics.



    It's really not your fault-       That no one cares to talk about it
E|---------------------------------------------------------------------|
B|---------------------------------------------------------------------|
G|---------------------------------------------------------------------|
D|--2-2-2-2-2-2-2-2-2-2-2-2-----------------4-4-4-4-4-4-4-4-4-4-4-4----|
A|--2-2-2-2-2-2-2-2-2-2-2-2-----------------4-4-4-4-4-4-4-4-4-4-4-4----|
D|--2-2-2-2-2-2-2-2-2-2-2-2-----------------4-4-4-4-4-4-4-4-4-4-4-4----|


    To talk about it
E|-------------------------------------------------|
B|-------------------------------------------------|
G|-------------------------------------------------|
D|--x-x-x-x-x-x-x-x-x-x-x-x--x-x-x-x-x-x-----------|
A|--x-x-x-x-x-x-x-x-x-x-x-x--x-x-x-x-x-x-----------|
D|--x-x-x-x-x-x-x-x-x-x-x-x--x-x-x-x-x-x-----------|



E|-----------------------------------------|
B|-----------------------------------------|
G|--4\-4/-4\-4/---6\-6/-6\-6/--------------|
D|--x\-x/-x\-x/---x\-x/-x\-x/--------------|
A|--2\-2/-2\-2/---4\-4/-4\-4/--------------|
D|--x\-x/-x\-x/---x\-x/-x\-x/--------------|


  1)Cause i've seen love die
  2.)I've seen you cry
E|-------------------------------------------------|
B|-------------------------------------------------|
G|-------------------------------------------------|
D|-9\-9\-9\-9/-9\-x/-x\-x/-\x-\x-/x-\x-------------|
A|-9\-9\-9\-9/-9\-x/-x\-x/-\x-\x-/x-\x-------------|
D|-9\-9\-9\-9/-9\-x/-x\-x/-\x-\x-/x-\x-------------|


   1&2.)Way too many times
E|-------------------------------------------------|
B|-------------------------------------------------|
G|-------------------------------------------------|
D|-4\-4\-4\-4/-4\-7/-7\-7/-\7-\7-/7-\7-------------|
A|-4\-4\-4\-4/-4\-7/-7\-7/-\7-\7-/7-\7-------------|
D|-4\-4\-4\-4/-4\-7/-7\-7/-\7-\7-/7-\7-------------|


   1.)When it deserved
   2.)When you deserved
E|-------------------------------------------------|
B|-------------------------------------------------|
G|-------------------------------------------------|
D|-9\-9\-9\-9/-9\-x/-x\-x/-\x-\x-/x-\x-------------|
A|-9\-9\-9\-9/-9\-x/-x\-x/-\x-\x-/x-\x-------------|
D|-9\-9\-9\-9/-9\-x/-x\-x/-\x-\x-/x-\x-------------|

  1&2.)To be alive
E|-------------------------------------------------|
B|-------------------------------------------------|
G|-------------------------------------------------|
D|-4\-4\-4\-4/-4\-2/-2\-2/-\2-\2-/2-\2-------------|
A|-4\-4\-4\-4/-4\-2/-2\-2/-\2-\2-/2-\2-------------|
D|-4\-4\-4\-4/-4\-2/-2\-2/-\2-\2-/2-\2-------------|

    
    1.)Alive
    2.)I think we have an emergency
    3.)So are you listening?
E|------------9--------9---------9-----------------|
B|------7--------7--------7---------7------7-------|
G|---------9--------9---------9---------9----------|
D|---x---------------------------------------------|
A|-------------------------------------------------|
D|-------------------------------------------------|

     2.)I think we have an emergency
     3.)So are you watching me?
E|------------7--------7---------7-----------------|
B|------7--------7--------7---------7------7-------|
G|---------9--------9---------9---------9----------|
D|---x---------------------------------------------|
A|-------------------------------------------------|
D|-------------------------------------------------|

 
    1.)So you give up every chance you get
    2.)And you do your best to show me love
    3.)Well I can't pretend
E|---------------------------------------------------|
B|---------------------------------------------------|
G|---------------------------------------------------|
D|--2\-2/-2\-2/----4\-4\-4\-4\----2\-2/-2/-----------|
A|--2\-2/-2\-2/----4\-4\-4\-4\----2\-2/-2/-----------|
D|--2\-2/-2\-2/----4\-4\-4\-4\----2\-2/-2/-----------|


    1.)Just to feel new again
    2.)But you don't know what love is.
    3.)That I don't see this.
E|---------------------------------------------------|
B|---------------------------------------------------|
G|---------------------------------------------------|
D|--2\-2/-2\-2/----4\-4\-4\-4\----2\-2/-2/-----------|
A|--2\-2/-2\-2/----4\-4\-4\-4\----2\-2/-2/-----------|
D|--2\-2/-2\-2/----4\-4\-4\-4\----2\-2/-2/-----------|



 It's really not your fault-       That no one cares to talk about it
E|---------------------------------------------------------------------|
B|---------------------------------------------------------------------|
G|---------------------------------------------------------------------|
D|--2-2-2-2-2-2-2-2-2-2-2-2-----------------4-4-4-4-4-4-4-4-4-4-4-4----|
A|--2-2-2-2-2-2-2-2-2-2-2-2-----------------4-4-4-4-4-4-4-4-4-4-4-4----|
D|--2-2-2-2-2-2-2-2-2-2-2-2-----------------4-4-4-4-4-4-4-4-4-4-4-4----|


    To talk about it
E|-------------------------------------------------|
B|-------------------------------------------------|
G|-------------------------------------------------|
D|--x-x-x-x-x-x-x-x-x-x-x-x--x-x-x-x-x-x-----------|
A|--x-x-x-x-x-x-x-x-x-x-x-x--x-x-x-x-x-x-----------|
D|--x-x-x-x-x-x-x-x-x-x-x-x--x-x-x-x-x-x-----------|


E|-----------------------------------------|
B|-----------------------------------------|
G|--4\-4/-4\-4/---6\-6/-6\-6/--------------|
D|--x\-x/-x\-x/---x\-x/-x\-x/--------------|
A|--2\-2/-2\-2/---4\-4/-4\-4/--------------|
D|--x\-x/-x\-x/---x\-x/-x\-x/--------------|


  1)Cause i've seen love die
  2.)I've seen you cry
E|-------------------------------------------------|
B|-------------------------------------------------|
G|-------------------------------------------------|
D|-9\-9\-9\-9/-9\-x/-x\-x/-\x-\x-/x-\x-------------|
A|-9\-9\-9\-9/-9\-x/-x\-x/-\x-\x-/x-\x-------------|
D|-9\-9\-9\-9/-9\-x/-x\-x/-\x-\x-/x-\x-------------|


   1&2.)Way too many times
E|-------------------------------------------------|
B|-------------------------------------------------|
G|-------------------------------------------------|
D|-4\-4\-4\-4/-4\-7/-7\-7/-\7-\7-/7-\7-------------|
A|-4\-4\-4\-4/-4\-7/-7\-7/-\7-\7-/7-\7-------------|
D|-4\-4\-4\-4/-4\-7/-7\-7/-\7-\7-/7-\7-------------|


   1.)When it deserved
   2.)When you deserved
E|-------------------------------------------------|
B|-------------------------------------------------|
G|-------------------------------------------------|
D|-9\-9\-9\-9/-9\-x/-x\-x/-\x-\x-/x-\x-------------|
A|-9\-9\-9\-9/-9\-x/-x\-x/-\x-\x-/x-\x-------------|
D|-9\-9\-9\-9/-9\-x/-x\-x/-\x-\x-/x-\x-------------|

  1&2.)To be alive
E|-------------------------------------------------|
B|-------------------------------------------------|
G|-------------------------------------------------|
D|-4\-4\-4\-4/-4\-2/-2\-2/-\2-\2-/2-\2-------------|
A|-4\-4\-4\-4/-4\-2/-2\-2/-\2-\2-/2-\2-------------|
D|-4\-4\-4\-4/-4\-2/-2\-2/-\2-\2-/2-\2-------------|


    Alive
E|------------9--------9---------9-----------------|
B|------7--------7--------7---------7------7-------|
G|---------9--------9---------9---------9----------|
D|---x---------------------------------------------|
A|-------------------------------------------------|
D|-------------------------------------------------|


E|------------7--------7---------7-----------------|
B|------7--------7--------7---------7------7-------|
G|---------9--------9---------9---------9----------|
D|---x---------------------------------------------|
A|-------------------------------------------------|
D|-------------------------------------------------|

I don't really know the part to "Scars they will not fade away."

But the solo I think is:

E|-----------------------------------------9---------9-------|
B|-------9-10-9-------------9-10-9----9--12---12---12---10-9-|
G|-----9--------9~--------9--------9~-----------9------------|
D|-7-9----------------7-9------------------------------------|
A|-----------------------------------------------------------|
D|-----------------------------------------------------------|

E|----------------------9-12----------17-16--------17-16-------------|
B|-------9-10-9----9-12-------10------------17-15--------16-14-14-13-|
G|-----9--------9~---------------------------------------------------|
D|-7-9---------------------------------------------------------------|
A|-------------------------------------------------------------------|
D|-------------------------------------------------------------------|


     And no one cares to talk about it
E|--------------------------------------|
B|--------------------------------------|
G|--------------------------------------|
D|-----------4-4-4-4-4-4-4-4-4-4-4-4----|
A|-----------4-4-4-4-4-4-4-4-4-4-4-4----|
D|-----------4-4-4-4-4-4-4-4-4-4-4-4----|


    To talk about it
E|-------------------------------------------------|
B|-------------------------------------------------|
G|-------------------------------------------------|
D|--x-x-x-x-x-x-x-x-x-x-x-x--x-x-x-x-x-x-----------|
A|--x-x-x-x-x-x-x-x-x-x-x-x--x-x-x-x-x-x-----------|
D|--x-x-x-x-x-x-x-x-x-x-x-x--x-x-x-x-x-x-----------|


E|-----------------------------------------|
B|-----------------------------------------|
G|--4\-4/-4\-4/---6\-6/-6\-6/--------------|
D|--x\-x/-x\-x/---x\-x/-x\-x/--------------|
A|--2\-2/-2\-2/---4\-4/-4\-4/--------------|
D|--x\-x/-x\-x/---x\-x/-x\-x/--------------|


  1)Cause i've seen love die
  2.)I've seen you cry
E|-------------------------------------------------|
B|-------------------------------------------------|
G|-------------------------------------------------|
D|-9\-9\-9\-9/-9\-x/-x\-x/-\x-\x-/x-\x-------------|
A|-9\-9\-9\-9/-9\-x/-x\-x/-\x-\x-/x-\x-------------|
D|-9\-9\-9\-9/-9\-x/-x\-x/-\x-\x-/x-\x-------------|


   1&2.)Way too many times
E|-------------------------------------------------|
B|-------------------------------------------------|
G|-------------------------------------------------|
D|-4\-4\-4\-4/-4\-7/-7\-7/-\7-\7-/7-\7-------------|
A|-4\-4\-4\-4/-4\-7/-7\-7/-\7-\7-/7-\7-------------|
D|-4\-4\-4\-4/-4\-7/-7\-7/-\7-\7-/7-\7-------------|


   1.)When it deserved
   2.)When you deserved
E|-------------------------------------------------|
B|-------------------------------------------------|
G|-------------------------------------------------|
D|-9\-9\-9\-9/-9\-x/-x\-x/-\x-\x-/x-\x-------------|
A|-9\-9\-9\-9/-9\-x/-x\-x/-\x-\x-/x-\x-------------|
D|-9\-9\-9\-9/-9\-x/-x\-x/-\x-\x-/x-\x-------------|

  1&2.)To be alive
E|-------------------------------------------------|
B|-------------------------------------------------|
G|-------------------------------------------------|
D|-4\-4\-4\-4/-4\-2/-2\-2/-\2-\2-/2-\2-------------|
A|-4\-4\-4\-4/-4\-2/-2\-2/-\2-\2-/2-\2-------------|
D|-4\-4\-4\-4/-4\-2/-2\-2/-\2-\2-/2-\2-------------|


    Alive
E|------------9--------9---------9-----------------|
B|------7--------7--------7---------7------7-------|
G|---------9--------9---------9---------9----------|
D|---x---------------------------------------------|
A|-------------------------------------------------|
D|-------------------------------------------------|


E|------------7--------7---------7-----------------|
B|------7--------7--------7---------7------7-------|
G|---------9--------9---------9---------9----------|
D|---x---------------------------------------------|
A|-------------------------------------------------|
D|-------------------------------------------------|



-------------------------------------------------------------
And that's the whole song. Have fun playing it. :D 
If you have any question's, comment's or corrections feel free to comment on this or email me.
Tap to rate this tab
 
# A B C D E F G H I J K L M N O P Q R S T U V W X Y Z