Song name
# A B C D E F G H I J K L M N O P Q R S T U V W X Y Z

Paramore - Monster tab

THIS IS ONLY FOR THE 30 SECOND PREVIEW!

Verse:
Guitar 1 (Clean/Echo effect)
e|--------------------------------------------|
b|-17~-12----17---------------17~-12----10----|
g|-16~---12~---14~---14--16---16~---12~---11~-|
d|-14~-------------14--14--14-14~-------------|
a|--------------------------------------------|
D|--------------------------------------------|


Pre-Chorus:
Guitar 1 (Clean/Echo effect)
e|--------------------|
b|-1717~----1717~-----|
g|-1616~----1616~-----|
d|-1414~----1414~-----|
a|--------------------|
D|--------------------|

Guitar 2 (Distorted)
e|--------------------|
b|--------------------|
g|--------------------|
d|--22---222----------|
a|--22---222----------|
D|--22---222----------|

Chorus:
Guitar 1 (Distorted)
e|-----------------------------------------------|
b|-----------------------------------------------|
g|-7------17171717-19191919--16161616-17171717---|
d|-x-x16--x-x-x-x--x-x-x-x---x-x-x-x--x-x-x-x----|
a|-9------15151515-15151515--14141414-14141414---|
D|-----------------------------------------------|

Guitar 2 (Distorted) [Pattern is pretty simple to figure out]
e|--------------------|
b|--------------------|
g|--------------------|
d|--2---7---5---------|
a|--2---7---5---------|
D|--2---7---5---------|
Tap to rate this tab
 
# A B C D E F G H I J K L M N O P Q R S T U V W X Y Z