Song name
# A B C D E F G H I J K L M N O P Q R S T U V W X Y Z

Paramore - Monster tab

-------------------------------------------------------------------------------
                              Paramore - Monster 
                (from Transformers: Dark of the Moon Soundtrack)
-------------------------------------------------------------------------------
Tabbed by: Jared Lim	
Email: jared3225@gmail.com

This is my first tab so I would really appreciate feedback!
If you post covers using this tab on YouTube, please give me credit! ;D

Tuning: Drop C

          *Arrangement*
***********************************
1. Intro
2. Verse
3. Pre-Chorus
4. Chorus
5. Verse
6. Pre-Chorus
7. Chorus
8. Solo
9. Bridge
10. Pre-Chorus (x2)
11. Chorus (x2)
***********************************

Intro:
Guitar 1 (Clean):
C|---------------------------------------------------------------------------|
G|-10-10-10-10-10-10-12-10-12-10-10-10-10-10-12-10-12-10-10-10-10-10-10-10---|
C|-11-11-11-11-11-11-11-11-11-11-11-11-11-11-11-11-11-11-11-11-11-11-11-11---|x2
F|-11-11-11-11-11-11-11-11-11-11-11-11-11-11-11-11-11-11-11-11-11-11-11-11---|
A|---------------------------------------------------------------------------|
D|---------------------------------------------------------------------------|

   1st time you play above | 2nd time you play above
C|-------------------------|-------------------------------------------------|
G|-9--9--9--9--9--9--9--9--|-----9~~~~~~~~~~~~-------------------------------|
C|-11-11-11-11-11-11-11-11-|---11~~~~~~~~~~~~~-------------------------------|
F|-10-10-10-10-10-10-10-10-|-10~~~~~~~~~~~~~~~-------------------------------|
A|-------------------------|-------------------------------------------------|
D|-------------------------|-------------------------------------------------|


Verse:
Guitar 1/Lead (Clean):
C|----------9~~~~----14~~~~~~~~~~~~~~~~~~~~----------------------------------|
G|----10-------------14~~~~~~~~~~~~~~~~~~~~----------------------------------|
C|-11----11-------11-14~~~~~~~~~~~~~~~~~~~~----------------------------------|
F|---------------------------------------------------------------------------|
A|---------------------------------------------------------------------------|
D|---------------------------------------------------------------------------|

C|-------------------------14~~~----------------------------------14~~~~~~~~-|
G|-14~~~-------------------------12~~~-------------------14~~~----14~~~~~~~~-|
C|-------14~~~-------------------------------------14~~~----------14~~~~~~~~-|
F|---------------------------------------------------------------------------|
A|---------------------------------------------------------------------------|
D|---------------------------------------------------------------------------|

C|-------------------------------------------------------9~~~~----14~~~~~~~~-|
G|-14~~~-------------------12~~~-------------------10-------------14~~~~~~~~-|
C|-------14~~~-------------------13~~~----------11----11-------11-14~~~~~~~~-|
F|---------------------------------------------------------------------------|
A|---------------------------------------------------------------------------|
D|---------------------------------------------------------------------------|

C|-------------------------14~~~----------------------------------14~~~~~~~~-|
G|-14~~~-------------------------12~~~-------------------14~~~----14~~~~~~~~-|
C|-------14~~~-------------------------------------14~~~----------14~~~~~~~~-|
F|---------------------------------------------------------------------------|
A|---------------------------------------------------------------------------|
D|---------------------------------------------------------------------------|

C|---------------------------------------------------------------------------|
G|-14~~~-------------------12~~~---------------------------------------------|
C|-------14~~~-------------------13~~~~~~------------------------------------|
F|---------------------------------------------------------------------------|
A|---------------------------------------------------------------------------|
D|---------------------------------------------------------------------------|

Guitar 2/Rhythm (Clean)
C|---------------------------------------------------------------------------|
G|-------2~~-------------0~~-------------2~~-------------0~~-----------------|
C|---2-------2---2---2-------2---2---2-------2---2---2-------2---2-----------|x4
F|-4---4-------4---4---4-------4---4---4-------4---4---4-------4-------------|
A|---------------------------------------------------------------------------|
D|---------------------------------------------------------------------------|


Pre-Chorus:
Guitar 1/Lead (Clean):
C|-----14---14~~~~~--------14---14~~~~~--------------------------------------|
G|-----14---14~~~~~--------14---14~~~~~--------------------------------------|
C|-----14---14~~~~~--------14---14~~~~~--------------------------------------|
F|---------------------------------------------------------------------------|
A|---------------------------------------------------------------------------|
D|---------------------------------------------------------------------------|

Guitar 3/Rhythm (Distorted):
C|---------------------------------------------------------------------------|
G|---------------------------------------------------------------------------|
C|---------------------------------------------------------------------------|
F|-2-2---------------2-2-2---------------------------------------------------|
A|-2-2---------------2-2-2---------------------------------------------------|
D|-2-2---------------2-2-2---------------------------------------------------|


Chorus:
Guitar 4/Lead (Distorted):
C|---------------------------------------------------------------------------|
G|---------------------------------------------------------------------------|
C|-11----9-----14----13----18------------------------------------------------|x3
F|-x-x8--x-x8--x-x8--x-x4--x-x4----------------------------------------------|
A|-9-----7-----12----11----16------------------------------------------------|
D|---------------------------------------------------------------------------|

C|---------------------------------------------------------------------------|
G|---------------------------------------------------------------------------|
C|-11----14~~~~~~------------------------------------------------------------|
F|-x-x8--x-------------------------------------------------------------------|
A|-9-----12~~~~~~------------------------------------------------------------|
D|---------------------------------------------------------------------------|

Guitar 3/Rhythm (Distorted):
C|---------------------------------------------------------------------------|
G|---------------------------------------------------------------------------|
C|---------------------------------------------------------------------------|x3
F|-0------4-----2------------------------------------------------------------|
A|-0-x16--4-x8--2-x8---------------------------------------------------------|
D|-0------4-----2------------------------------------------------------------|

C|---------------------------------------------------------------------------|
G|---------------------------------------------------------------------------|
C|---------------------------------------------------------------------------|
F|-0-----2~~~~~--------------------------------------------------------------|
A|-0-x8--2~~~~~--------------------------------------------------------------|
D|-0-----2~~~~~--------------------------------------------------------------|


Solo:
Guitar 4/Lead (Distorted):
C|---------------------------------------------------------------------------|
G|---------------------------------------------------------------------------|
C|-/11-11-11----------9-9-9-------------6-6-6-----------6-6-6----------------|
F|-----------11-11-11-------9-9-9-7-7~~-------7-7-7-7~~--------7-7-----------|
A|---------------------------------------------------------------------------|
D|---------------------------------------------------------------------------|

C|---------------------------------------------------------------------------|
G|-/11-11-11----------13-13-13----------------------13----14----13-----------|
C|-----------11-11-11----------14-14-14-14-14-11/12----12----12----12--------|
F|---------------------------------------------------------------------------|
A|---------------------------------------------------------------------------|
D|---------------------------------------------------------------------------|

C|---------------------------------------------------------------------------|
G|---------------------------------------------------------------------------|
C|-14/16~~~-16-16/14-14-14-14~~~---------------------------------------------|
F|---------------------------------------------------------------------------|
A|---------------------------------------------------------------------------|
D|---------------------------------------------------------------------------|

Guitar 3/Rhythm (Distorted):
C|---------------------------------------------------------------------------|
G|---------------------------------------------------------------------------|
C|---------------------------------------------------------------------------|
F|-4-4-4-7~~-7-7-7-2-2-2-6~~-6-6-6-0-0~~-4-4-4-0-0-0-0~~-4-4-4-0-0-----------|
A|-4-4-4-7~~-7-7-7-2-2-2-6~~-6-6-6-0-0~~-4-4-4-0-0-0-0~~-4-4-4-0-0-----------|
D|-4-4-4-7~~-7-7-7-2-2-2-6~~-6-6-6-0-0~~-4-4-4-0-0-0-0~~-4-4-4-0-0-----------|

C|---------------------------------------------------------------------------|
G|---------------------------------------------------------------------------|
C|---------------------------------------------------------------------------|
F|-4-4-4-7~~-7-7-7-2-2-2-6~~-6-6-6-0-----------------------------------------|
A|-4-4-4-7~~-7-7-7-2-2-2-6~~-6-6-6-0-x16-------------------------------------|
D|-4-4-4-7~~-7-7-7-2-2-2-6~~-6-6-6-0-----------------------------------------|


Bridge:
Guitar 4/Lead (Distorted):
C|-------------------------------------------------14-14-14------------------|
G|-15-15-15-14-14-14-------17-17-17-14-14-14----------------14-14-14---------|
C|-------------------14-14-------------------14-14-------------------14-14---|
F|---------------------------------------------------------------------------|
A|---------------------------------------------------------------------------|
D|---------------------------------------------------------------------------|

C|-x------------x------------------------------------------------------------|
G|-x------------x------------------------------------------------------------|
C|-x-18~~~~~----x-16~~~~~----------------------------------------------------|
F|-x-x----------x-x----------------------------------------------------------|
A|-x-16~~~~~----x-14~~~~~----------------------------------------------------|
D|-x------------x------------------------------------------------------------|

C|---------------------------------------------------------------------------|
G|-15-15-15-14-14-14-------17-17-17-14-14-14---------------------------------|
C|-------------------14-14-------------------14-14---------------------------|
F|---------------------------------------------------------------------------|
A|---------------------------------------------------------------------------|
D|---------------------------------------------------------------------------|

C|---------------------------------------------------------------------------|
G|---------------------------------------------------------------------------|
C|-11----13----14----18---11----13----14----16-------------------------------|
F|-x-x4--x-x4--x-x4--x-x4-x-x4--x-x4--x-x4--x-x4-----------------------------|
A|-9-----11----12----16---9-----9-----12----14-------------------------------|
D|---------------------------------------------------------------------------|

Guitar 3/Rhythm (Distorted):
C|------------------x------x-------------------------------------------------|
G|------------------x------x-------------------------------------------------|
C|------------------x------x-------------------------------------------------|
F|-9-----7----0-----x-4~~~-x-2~~~--------------------------------------------|
A|-9-x8--7-x8-0-x8--x-4~~~-x-2~~~--------------------------------------------|
D|-9-----7----0-----x-4~~~-x-2~~~--------------------------------------------|

C|---------------------------------------------------------------------------|
G|---------------------------------------------------------------------------|
C|---------------------------------------------------------------------------|
F|-9-----7----0-----2--------------------------------------------------------|
A|-9-x8--7-x8-0-x16-2-x16----------------------------------------------------|
D|-9-----7----0-----2--------------------------------------------------------|

-------------------------------------------------------------------------------
      Contact me at jared3225@gmail.com for feedback! Thanks for viewing!
-------------------------------------------------------------------------------
Tap to rate this tab
 
# A B C D E F G H I J K L M N O P Q R S T U V W X Y Z