Song name
# A B C D E F G H I J K L M N O P Q R S T U V W X Y Z

Paramore - Monster tab

NOTE: these are the notes I think they play - I got them by listening to the song, 
so they may not be entirely correct.
During the chorus at some points a clean guitar plays some high notes - those that 
are also played during the verse - but in another order.

Feel free to correct me - to make this tab as accurate as possible.

Have fun!

xoxo
ms.brightside.
_______________________________________________________


INTRO

Guitar 1:
e|---------------------|
B|-0-3~--0-3~--0-3~----|
G|------------------3~-| 2x
D|---------------------|
A|---------------------|
E|---------------------|

Guitar 2:
e|-5\3/5\3/5\3/5\3/5\3/5\3/5\3/5\3/5\3/5\3/5\3/5\3/5~-|
B|----------------------------------------------------|
G|----------------------------------------------------| 2x
D|----------------------------------------------------|
A|----------------------------------------------------|
E|----------------------------------------------------|
NOTE: you hit the "5's" on your guitar and then slide down and up again, hit the 
5, then down and up and so on...


VERSE 1

Guitar 1:
e|-------------------------------------------------------|
B|------------17~-12----17---------------17~-12----10----|
G|---14--16---16~---12~---14~---14--16---16~---12~---11~-|
D|-14--14--14-14~-------------14--14--14-14~-------------|
A|-------------------------------------------------------|
E|-------------------------------------------------------|

Chords:

Em         Cadd9         G          D
  You were my conscience, so silent now you're like water
Em               Cadd9    G              D
  And we started drowning, not like we'd sink any farther.
Em          Cadd9       G               D
  But I let my heart go, it's somewhere down the bottom.
Em               Cadd9   G                   D
  But I'll get a new one, come back from the hope that you've stolen.


PRE-CHORUS

Guitar 1:
e|--------------------|
G|-1717~----1717~-----|
G|-1616~----1616~-----|
D|-1414~----1414~-----|
A|--------------------|
E|--------------------|

Chords/ Guitar 2:
Em (2x) Em (3x)


CHORUS

C             Em          G              D       
I'll stop the whole world, I'll stop the whole world
     C              Em           G           D
From turning into a monster, and eating us alive
               C      Em        G     D
Don't you ever wonder how we survive?
                     C         D        Em
Well now that you're gone, the world is ours.


PRE-VERSE 2

Guitar 1:
e|-------------------------------------------------------|
B|------------17~-12----17---------------17~-12----10----|
G|---14--16---16~---12~---14~---14--16---16~---12~---11~-|
D|-14--14--14-14~-------------14--14--14-14~-------------|
A|-------------------------------------------------------|
E|-------------------------------------------------------|

Chords:
C  Em  G  D    2x    


VERSE 2

Guitar 1:
e|--------------------------------------------|
B|-17~-12----17---------------17~-12----10----|
G|-16~---12~---14~---14--16---16~---12~---11~-|
D|-14~-------------14--14--14-14~-------------|
A|--------------------------------------------|
E|--------------------------------------------|

Chords:

Em      Cadd9    G           D
  I'm only human, I've got a skeleton in me
Em            Cadd9       G             D
  but I'm not the villain, despite what you're always preaching.
Em          Cadd9   G            D
  Call me a traitor, I'm just collecting your victims
Em               Cadd9         G            D
  And they're getting stronger, I hear them calling.


PRE-CHORUS 2

Guitar 1:
e|--------------------|
G|-1717~----1717~-----|
G|-1616~----1616~-----|
D|-1414~----1414~-----|
A|--------------------|
E|--------------------|

Chords/ Guitar 2:
Em (2x) Em (3x)


CHORUS 2

C             Em          G              D       
I'll stop the whole world, I'll stop the whole world
     C              Em           G           D
From turning into a monster, and eating us alive
               C      Em        G     D
Don't you ever wonder how we survive?
                     C         D        Em
Well now that you're gone, the world is ours.


PRE-BRIDGE

Guitar 1:
e|-12-------------------------12-----15-----------------12-------17-15-|
B|----12--15-------12-----12-----12-----12-----12-15-12----12-15-------|
G|-----------14--12--12-12--12--------------14-------------------------|
D|---------------------------------------------------------------------|
A|---------------------------------------------------------------------|
E|---------------------------------------------------------------------|

Chords:
Em  Cadd9  G  D


BRIDGE

Em                    G
  Well you thought of straightened solutions
D                   C  G
 that I liked the attention
Em               G
  And not always knowing the answers
D             C
 You're gonna lose it
G             D
 You're gonna lose it


PRE-CHORUS 3

Guitar 1:
e|--------------------|
G|-1717~----1717~-----|
G|-1616~----1616~-----|  2x
D|-1414~----1414~-----|
A|--------------------|
E|--------------------|

Chords/ Guitar 2:
Em (2x) Em (3x)          2x


CHORUS 3&4

C             Em          G              D       
I'll stop the whole world, I'll stop the whole world
     C              Em           G           D
From turning into a monster, and eating us alive
               C      Em        G     D
Don't you ever wonder how we survive?
                     C         D       
Well now that you're gone, the world 

C             Em          G              D       
I'll stop the whole world, I'll stop the whole world
     C              Em           G           D
From turning into a monster, and eating us alive
               C      Em        G     D
Don't you ever wonder how we survive?
                     C         D        Em
Well now that you're gone, the world is ours.




Song Information
Released June 7, 2011
Recorded March, 2011
Genre Alternative rock
Length 3:20
Label Fueled by Ramen, Warner
Tap to rate this tab
 
# A B C D E F G H I J K L M N O P Q R S T U V W X Y Z