Paramore - Monster tab

Paramore – Monster
Transformers 3 OST
Tuning Drop C
(D A F C G C)

Tabbed by Diego José González

Intro.


Guitar 1
|---------------------------------------------------------------|
|-------5-------------5-------------5-------------6-------------|
|---6-----6---6---6-----6---6---6-----6---6---6-----------------|
|-4---4-----4---4---4-----4---4---4-----4---3---3---------------|
|---------------------------------------------------------------|
|---------------------------------------------------------------|
|Guitar 2
|-5-5-5-5-5-5-7-5-7-5-5-5-5-5-7-5-7-5-5-5-5-5-4-4-4-4------4~---|
|-7-7-7-7-7-7-7-7-7-7-7-7-7-7-7-7-7-7-7-7-7-7-7-7-7-7----7~-----|
|-6-6-6-6-6-6-6-6-6-6-6-6-6-6-6-6-6-6-6-6-6-6-6-6-6-6--6~-------|
|---------------------------------------------------------------|
|---------------------------------------------------------------|
|---------------------------------------------------------------|



Verses.

Rhythym
|----------------14---|------17~---14-----|------17~--------|---9--9------9--9--|
|----------14----14---|--14------------12~|--14------12-----|---10-10-----10-10-|
|----14----------14---|-------------------|-------------13~-|---11-11-----11-11-|
|-16----16------------|-------------------|-----------------|-------------------|
|---------------------|-------------------|-----------------|-------------------|
|---------------------|-------------------|-----------------|-------------------|
Lead
|-----------------------------------------------------------|-------------------|
|-------0-------------0-------------0-------------0---------|-------------------|
|---2-----2---2---2-----2---2---2-----2---2---2-----2---2-%-|-------------------|
|-4---4-----4---4---4-----4---0---0-----0---2---2-----2-----|-4-4----4-4-4------|
|-----------------------------------------------------------|-4-4----4-4-4------|
|-----------------------------------------------------------|-4-4----4-4-4------|

Chorus

Lead
|-------------------------------------------------------------------|
|-10-10-10-10-14-14-12-12----10-10-10-10-14-14-12-12-10-10----------|
|-11-11-11-11-14-14-13-13----11-11-11-11-14-14-13-13-11-11---/13b---|
|-------------------------------------------------------------------|
|-------------------------------------------------------------------|
|-------------------------------------------------------------------|

Rhythym
|-------------------------------------------------------------------|
|-------------------------------------------------------------------|
|-------------------------------------------------------------------|
|-0-0-0-0-0-0-4-4-4-2-2-2-----0-0-0-0-0-0-7-7-7-2-2-2-0-0-0-2~------|
|-0-0-0-0-0-0-4-4-4-2-2-2-x2--0-0-0-0-0-0-7-7-7-2-2-2-0-0-0-2~------|
|-0-0-0-0-0-0-4-4-4-2-2-2-----0-0-0-0-0-0-7-7-7-2-2-2-0-0-0-2~------|

Guitar 3
|-------------------------------------------------------------------|
|-------------------------------------------------------------------|
|-11-11-11-11--14-14-13-13----11-11-11-11-14-14-13-13-11-11---------|
|-------------------------------------------------------------------|
|--9--9--9--9--12-12-11-11-----9--9--9--9-12-12-11-11--9--9---------|
|-------------------------------------------------------------------|




Solo.

Rhythym
|-----------------------------------------|
|-----------------------------------------|
|-----------------------------------------|
|-4-4-4--7--2-2-2--6--0-0-0-0-0-0-0-0-0-0-|
|-4-4-4--7--2-2-2--6--0-0-0-0-0-0-0-0-0-0-|
|-4-4-4--7--2-2-2--6--0-0-0-0-0-0-0-0-0-0-|
Solo (octave high)
|------------------------------------------------------------------------|
|-7-7-7-----5-5-5------------------------------------7-7-7-----9-9-9-----|
|-------6~--------4~----------6--6-----------6-6-----------6~--------9~--|
|-----------------------7-7-7-------7-7-7-7------7-----------------------|
|------------------------------------------------------------------------|
|------------------------------------------------------------------------|

|-----------------------------------------------|
|-----9---10---9---12-12-12-12-10~--------------|
|-6h7---7----7---7------------------------------|
|-----------------------------------------------|
|-----------------------------------------------|
|-----------------------------------------------|

Interlude

Rhythym
|-------------------------------------------|-----------|---------------------------|
|-------------------------------------------|-----------|---------------------------|
|-4-4-4-4-4-4-4-6-6-6-6-6-6-6-7-7-7-7-7-7-7-|-----------|-7-7-7-7-7-9-9-9-9-9-9-9-9-|
|-4-4-4-4-4-4-4-6-6-6-6-6-6-6-7-7-7-7-7-7-7-|---7-----2-|-7-7-7-7-7-9-9-9-9-9-9-9-9-|
|-2-2-2-2-2-2-2-4-4-4-4-4-4-4-5-5-5-5-5-5-5-|---7-----2-|-5-5-5-5-5-7-7-7-7-7-7-7-7-|
|-------------------------------------------|-0-7---0-2-|---------------------------|
Lead
|-----------------------------------------------------------------------------------|
|-15-15-15-14-----17-17-17-15-------------------------------------------------------|
|-------------14--------------14---11-11-11-11-13-13-13-13-14-14-14-14-18-18-18-18--|
|-----------------------------------------------------------------------------------|
|-----------------------------------9--9--9--9-11-11-11-11-12-12-12-12-16-16-16-16--|
|-----------------------------------------------------------------------------------|

|-----------------------------------------------|
|-----------------------------------------------|
|-11-11-11-11-13-13-13-13-14-14-14-14-9-9-9-9---|
|-----------------------------------------------|
|-9--9--9--9--11-11-11-11-12-12-12-12-7-7-7-7---|
|-----------------------------------------------|

Comments & more:
snakepit_diego@hotmail.com
Tap to rate this tab
 
# A B C D E F G H I J K L M N O P Q R S T U V W X Y Z