Paramore - Monster tab

E ---7----------7---------7-------------------------------7----------------------|
B ---8--------------8---------10----------------8--------------------------------|
G ---9---9-----------------------------------9-------9---------------------------|
D -------------------------------------------------------------------------------|
A -------------------------------------------------------------------------------|
E--------------------------------------------------------------------------------|


E ---7----------7---------7---------------------------------------------------|
B ---8--------------8---------10----------------------------------------------|
G---9---9---------------------------------------------------------------------|
D----------------------------------------2---2---------2---2---2--------------|
A----------------------------------------2---2---------2---2---2--------------|
E-----------------------------------------------------------------------------|

E -----------------------------------------------------------------------|
B -----------------------------------------------------------------------|
G --9------------12-------------11---------------------------------------|
D ---- (x 16) --------- (x 6) ---------(x6)------------------------------|
A --7------------10-------------9----------------------------------------|
E------------------------------------------------------------------------|

E -----------------------------------------------------------------------|
B -----------------------------------------------------------------------|
G --9------------12-------------11-----------16----------9---------------|
D ---- (x 16) --------- (x 6) ---------(x2)---------(x4)-----------------|
A --7------------10-------------9------------14-----------7--------------|
E------------------------------------------------------------------------|
Tap to rate this tab
 
# A B C D E F G H I J K L M N O P Q R S T U V W X Y Z