Paramore - Monster tab

Thats all that i go so far i will post solo as soon as i write it down! Pce

Intro
D|------------------------------------------------------------------------|
A|-10-10-10-10-10-10-12-10-12-10-10-10-10-10-12-10-12-10-10-10-10-10-10-10|
F|-11-11-11-11-11-11-11-11-11-11-11-11-11-11-11-11-11-11-11-11-11-11-11-11|
C|-11-11-11-11-11-11-11-11-11-11-11-11-11-11-11-11-11-11-11-11-11-11-11-11|
G|------------------------------------------------------------------------|
C|------------------------------------------------------------------------|

And then you play it again then 


D|-------------------------|---------------------------|
A|-9--9--9--9--9--9--9--9--|-----9---------------------|
F|-11-11-11-11-11-11-11-11-|---11----------------------|
C|-10-10-10-10-10-10-10-10-|-10------------------------|
G|-------------------------|---------------------------|
C|-------------------------|---------------------------|

Verse
D|----------9-----14---------------------------------|
A|----10----------14---------------------------------|
F|-11----11---11--14---------------------------------|
C|---------------------------------------------------|
G|---------------------------------------------------|
C|---------------------------------------------------|

D|--------------14--------------|
A|-14-------------12------------|
F|-------14---------------------|
C|------------------------------|
G|------------------------------|
C|------------------------------|

Then you play the first part,in the second part you play this

D|------------------------------|
A|-14---------------12----------|
F|-------14-------------13------|
C|------------------------------|
G|------------------------------|
C|------------------------------|

And then you play the verse again

Pre Chours  
D|-----14---14-------|
A|-----14---14-------|
F|-----14---14-------|   X2
C|-------------------|
G|-------------------|
C|-------------------|

Chours
D|-----------------------------------------------------------------|
A|-----------------------------------------------------------------|
F|9-----14----13----18---------------------------------------------|x3
C|x-x8---x-x8-x-x4--x-x4-------------------------------------------|
G|7-----12----11----16---------------------------------------------|
C|-----------------------------------------------------------------|


Tap to rate this tab
 
# A B C D E F G H I J K L M N O P Q R S T U V W X Y Z