Paramore - Monster tab

=============================================================================
                           Paramore - Monster
=============================================================================


~ Sustain
* Palm mute
{ x 2 } Play 2 times


Intro:

E --------------------------------------------------|
B ---10-(12)----------------------------------------|
G ---11-------10------------------------------------|
D ---11-------11------------------------------------|
A ------------9-------------------------------------|
D --------------------------------------------------|

Verse 1:

E -----7--12~-----7-------9-5---------------------|
B ---8----12~-------8----------------------------|
G -9------12~---9-------7-------------------------|
D ------------------------------------------------|
A ------------------------------------------------|
D ------------------------------------------------|

E -----7--12~-----7-------5-----------------------|
B ---8----12~-------8------7---------------------|
G -9------12~---9-------7-------------------------|
D ------------------------------------------------|
A ------------------------------------------------|
D ------------------------------------------------|



Pre Chorus:

1st Guitar

E -------12-12~---12-12~-----------------------------|
B -------12-12~---12-12~-----------------------------|
G -------12-12~---12-12~----------------------------|
D ---------------------------------------------------|
A ---------------------------------------------------|
D ---------------------------------------------------|

2nd Guitar

E ---------------------------------------------------|
B ---------------------------------------------------|
G --------------------------------------------------|
D ----4-4----4-4-4-----------------------------------|
A ----4-4----4-4-4-----------------------------------|
D ----4-4----4-4-4-----------------------------------|

Chorus:

  1st Guitar
E ------------------------------------------------------|
B ------------------------------------------------------|
G --9------------12-------------11----------------------|
D ------------------------------------------------------|
A --7------------10-------------9-----------------------|
D ------------------------------------------------------|

E ----------------------------------------------------|
B ----------------------------------------------------|
G --9------------12-------------11-----------16-------| { x2 }
D ----------------------------------------------------|
A --7------------10-------------9------------14-------|
D ----------------------------------------------------|

E ---------------------------------------------------|
B ---------------------------------------------------|
G --9------------11~---------------------------------|
D ---------------------------------------------------|
A --7------------9~----------------------------------|
D ---------------------------------------------------|

 2nd Guitar
E -----------------------------------------------------|
B -----------------------------------------------------|
G -----------------------------------------------------|
D -0-----4----2----------------------------------------| { x 2 }
A -0-----4----2----------------------------------------|
D -0-----4----2----------------------------------------|

E -----------------------------------------------------|
B -----------------------------------------------------|
G -----------------------------------------------------|
D -0-----/6----2----0----2~----------------------------|
A -0-----/6----2----0----2~----------------------------|
D -0-----/6----2----0----2~----------------------------|

Verse 2:

E -----7--12~-----7-------9-5---------------------|
B ---8----12~-------8----------------------------|
G -9------12~---9-------7-------------------------|
D ------------------------------------------------|
A ------------------------------------------------|
D ------------------------------------------------|

E -----7--12~-----7-------5-----------------------|
B ---8----12~-------8------7---------------------|
G -9------12~---9-------7-------------------------|
D ------------------------------------------------|
A ------------------------------------------------|
D ------------------------------------------------|

 2nd Guitar
E ------------------------------------------------|
B ------------------------------------------------|
G ------------------------------------------------|
D ---9----5----7----------------------------------|
A ---9----5----7----------------------------------|
D ---9----5----7----------------------------------|
     *    *    *

Pre Chorus:

1st Guitar

E -------12-12~---12-12~-----------------------------|
B -------12-12~---12-12~-----------------------------|
G -------12-12~---12-12~----------------------------|
D ---------------------------------------------------|
A ---------------------------------------------------|
D ---------------------------------------------------|

2nd Guitar

E ---------------------------------------------------|
B ---------------------------------------------------|
G --------------------------------------------------|
D ----4-4----4-4-4-----------------------------------|
A ----4-4----4-4-4-----------------------------------|
D ----4-4----4-4-4-----------------------------------|

Chorus:

 1st Guitar
E ------------------------------------------------------|
B ------------------------------------------------------|
G --9------------12-------------11----------------------|
D ------------------------------------------------------|
A --7------------10-------------9-----------------------|
D ------------------------------------------------------|

E ----------------------------------------------------|
B ----------------------------------------------------|
G --9------------12-------------11-----------16-------| { x2 }
D ----------------------------------------------------|
A --7------------10-------------9------------14-------|
D ----------------------------------------------------|

E ---------------------------------------------------|
B ---------------------------------------------------|
G --9------------11~---------------------------------|
D ---------------------------------------------------|
A --7------------9~----------------------------------|
D ---------------------------------------------------|

 2nd Guitar
E -----------------------------------------------------|
B -----------------------------------------------------|
G -----------------------------------------------------|
D -0-----4----2----------------------------------------| { x 2 }
A -0-----4----2----------------------------------------|
D -0-----4----2----------------------------------------|

E -----------------------------------------------------|
B -----------------------------------------------------|
G -----------------------------------------------------|
D -0-----/6----2----0----2~----------------------------|
A -0-----/6----2----0----2~----------------------------|
D -0-----/6----2----0----2~----------------------------|

Solo:


E ---------------------------------------------------|
B ---------------------------------------------------|
G -9-9-9--9--7-7-7-----------4---------4------------|
D -------9-----------7--5-5-5---5--5-5-5-------------|
A ---------------------------------------------------|
D----------------------------------------------------|

E --------------------------------------------------|
B --------------------------------------------------|
G -9-9-9---9--11-11-11-----------------------------|
D --------9------------12---------------------------|
A --------------------------------------------------|
D---------------------------------------------------|

E ---------------------------------------------------|
B ---------------------------------------------------|
G -------12----12---12------14-12--------------------|
D -9-10----10----10---10-----------------------------|
A ---------------------------------------------------|
D----------------------------------------------------|

E --------------------------------------------------|
B -13-13-13-12-12-12--------------------------------|
G ---------------------12-12-----------------------|
D --------------------------------------------------|
A --------------------------------------------------|
D---------------------------------------------------|

E --------------------------------------------------|
B -15-15-15-12-12-12--------------------------------|
G ------------------------12-12---------------------|
D --------------------------------------------------|
A --------------------------------------------------|
D---------------------------------------------------|


E -12-12-12-------------------------------------------|
B ------------12-12-12-----------12--12-----11--11----|
G ---------------------12-12-------------------------|
D -------------------------------10--10-----9---9-----|
A ----------------------------------------------------|
D-----------------------------------------------------|

E -----------------------------------------------------|
B -13-13-13-12-12-12-----------------------------------|
G ---------------------12-12--------------------------|
D -----------------------------------------------------|
A -----------------------------------------------------|
D------------------------------------------------------|

E ----------------------------------------------------|
B -15-15-15-12-12-12----------------------------------|
G ------------------------12-12-----------------------|
D ----------------------------------------------------|
A ----------------------------------------------------|
D-----------------------------------------------------|


E --------------------------------------------------|
B -9----11----12-------19---------------------------|
G (x4)--(x4)---(x4)------(x4)----------------------|(x2)
D -7----9-----10-------17---------------------------|
A --------------------------------------------------|
D---------------------------------------------------|


 2nd Guitar
E ---------------------------------------------------|
B ---------------------------------------------------|
G ---------------------------------------------------| { x 2 }
D ---4----2----0-------------------------------------|
A ---4----2----0-------------------------------------|
D ---4----2----0-------------------------------------|

E ----------------------------------------------------|
B ----------------------------------------------------|
G ----------------------------------------------------|
D ---9---11---12----7-7----2-2------------------------|
A ---9---11---12----7-7----2-2------------------------|
D ---9---11---12----7-7----2-2------------------------|
                    *      *
E -----------------------------------------------------|
B -----------------------------------------------------|
G -----------------------------------------------------|
D ---9---11---12---14----------------------------------|
A ---9---11---12---14----------------------------------|
D ---9---11---12---14----------------------------------|

Pre Chorus:

1st Guitar

E -------12-12~---12-12~------------------------------|
B -------12-12~---12-12~------------------------------|
G -------12-12~---12-12~-----------------------------|
D ----------------------------------------------------|
A ----------------------------------------------------|
D ----------------------------------------------------|
                                                      >
2nd Guitar                                             > { x 2 }
                                                      >
E ----------------------------------------------------|
B ----------------------------------------------------|
G ---------------------------------------------------|
D ----4-4----4-4-4------------------------------------|
A ----4-4----4-4-4------------------------------------|
D ----4-4----4-4-4------------------------------------|

Chorus:

 1st Guitar
E ------------------------------------------------------|
B ------------------------------------------------------|
G --9------------12-------------11----------------------|
D ------------------------------------------------------|
A --7------------10-------------9-----------------------|
D ------------------------------------------------------|

E ----------------------------------------------------|
B ----------------------------------------------------|
G --9------------12-------------11-----------16-------| { x2 }
D ----------------------------------------------------|
A --7------------10-------------9------------14-------|
D ----------------------------------------------------|

E ---------------------------------------------------|
B ---------------------------------------------------|
G --9------------11~---------------------------------|
D ---------------------------------------------------|
A --7------------9~----------------------------------|
D ---------------------------------------------------|

 2nd Guitar
E -----------------------------------------------------|
B -----------------------------------------------------|
G -----------------------------------------------------|
D -0-----4----2----------------------------------------| { x 2 }
A -0-----4----2----------------------------------------|
D -0-----4----2----------------------------------------|

E -----------------------------------------------------|
B -----------------------------------------------------|
G -----------------------------------------------------|
D -0-----/6----2----0----2~----------------------------|
A -0-----/6----2----0----2~----------------------------|
D -0-----/6----2----0----2~----------------------------|

(x2)
Tap to rate this tab
 
# A B C D E F G H I J K L M N O P Q R S T U V W X Y Z