Song name
# A B C D E F G H I J K L M N O P Q R S T U V W X Y Z

Paramore - Monster tab

-------------------------------------------------------------------------------
			     MONSTER - Paramore
-------------------------------------------------------------------------------
Tabbed by: rockett97
Email: rockett97@hotmail.com

Tuning: Drop D (eBGDAD)


Guitar 1


Intro


e|------------------------------------------------------------------|
B|-------3---------------3---------------3-------------4------------|
G|---4-------4---4---4-------4---4---4-------4---4---4---4---4----4-|
D|-2---2---2---2---2---2---2---2---2---2---2---2---1---1---1---1----|
A|------------------------------------------------------------------|
D|------------------------------------------------------------------|

e|--------------------------------------------------x------------|
B|-------3---------------3---------------3----------4-(let ring)-|
G|---4-------4---4---4-------4---4---4-------4---4--4------------|
D|-2---2---2---2---2---2---2---2---2---2---2---2----1------------|
A|---------------------------------------------------------------|
D|---------------------------------------------------------------|

Verse

e|-----------12-----------12-------------------12-----------------|
B|---8---12--8-----12-8------10--------8---12--8-----12-8---10----|
G|-9---9-----9-----------------------9---9-----9---------------11-| (x2)
D|----------------------------------------------------------------|
A|----------------------------------------------------------------|
D|----------------------------------------------------------------|

(The parts for guitar 2 are in brackets; these are just to point out what this part means)

e|---------12-12-------------12-12-(let ring)-|
B|---------12-12-------------12-12------------|
G|--------------------------------------------|
D|-(2)-(2)-------(2)-(2)-(2)------------------|
A|-(2)-(2)-------(2)-(2)-(2)------------------|
D|-(2)-(2)-------(2)-(2)-(2)------------------|


Chorus

e|---------------------------------------------------------------------------------|
B|---------------------------------------------------------------------------------|
G|-9-9-9-9-9-9-9-9-9-9-9-9-9-9-9-9/12-12-12-12-12-12-12-12\11-11-11-11-11-11-11-11-| (x3)
D|-x-x-x-x-x-x-x-x-x-x-x-x-x-x-x-x-x--x--x--x--x--x--x--x--x--x--x--x--x--x--x--x--|
A|-7-7-7-7-7-7-7-7-7-7-7-7-7-7-7-7/10-10-10-10-10-10-10-10\9--9--9--9--9--9--9--9--|
D|---------------------------------------------------------------------------------|

e|-------------------------------|
B|-------------------------------|
G|-9-9-9-9-9-9-9-9/11------------|
D|-x-x-x-x-x-x-x-x-x--(let ring)-|
A|-7-7-7-7-7-7-7-7/9-------------|
D|-------------------------------|


Verse

e|-----------12-----------12-------------------12-----------------|
B|---8---12--8-----12-8------10--------8---12--8-----12-8---10----|
G|-9---9-----9-----------------------9---9-----9---------------11-|
D|----------------------------------------------------------------| (x3)
A|----------------------------------------------------------------|
D|----------------------------------------------------------------|


e|---------12-12-------------12-12-(let ring)-|
B|---------12-12-------------12-12------------|
G|--------------------------------------------|
D|-(2)-(2)-------(2)-(2)-(2)------------------|
A|-(2)-(2)-------(2)-(2)-(2)------------------|
D|-(2)-(2)-------(2)-(2)-(2)------------------|


Chorus

e|---------------------------------------------------------------------------------|
B|---------------------------------------------------------------------------------|
G|-9-9-9-9-9-9-9-9-9-9-9-9-9-9-9-9/12-12-12-12-12-12-12-12\11-11-11-11-11-11-11-11-| (x3)
D|-x-x-x-x-x-x-x-x-x-x-x-x-x-x-x-x-x--x--x--x--x--x--x--x--x--x--x--x--x--x--x--x--|
A|-7-7-7-7-7-7-7-7-7-7-7-7-7-7-7-7/10-10-10-10-10-10-10-10\9--9--9--9--9--9--9--9--|
D|---------------------------------------------------------------------------------|

e|-------------------------------|
B|-------------------------------|
G|-9-9-9-9-9-9-9-9/11------------|
D|-x-x-x-x-x-x-x-x-x--(let ring)-|
A|-7-7-7-7-7-7-7-7/9-------------|
D|-------------------------------|


Solo/Bridge

e|----------------------------------------------------------------|
B|----------------------------------------------------------------|
G|-/9-9-9----------7-7-7----------------4-4-4-----------4-4-4-----|
D|--------9--9-9-9-------7--7-7-7--5-5---------5-5-5-5--------5-5-|
A|----------------------------------------------------------------|
D|----------------------------------------------------------------|

e|----------------------------------------------------------------------------------------|
B|----------------------------------------------------------------------------------------|
G|-/9-9-9----------11-11-11--------------------11----12----11----/14-14-14-14-12-12-12-12-|
D|--------9--9-9-9----------12--12-12-12--9h10----10----10----10--------------------------|
A|----------------------------------------------------------------------------------------|
D|----------------------------------------------------------------------------------------|

e|---------------------------------------|-----|-----|
B|-/13--12-------15--12-----------12-----|--12-|--10-|
G|----------12-----------12-----------12-|--x--|--x--|
D|----------------------------14---------|--9--|--7--|
A|---------------------------------------|-----|-----|
D|---------------------------------------|-----|-----|

e|---------------------------------------------------|
B|-13--12-------15--12----------------12-------------|
G|---------12-----------12----9-11-12-----9-11-12----|
D|------------------------------------------------12-|
A|---------------------------------------------------|
D|---------------------------------------------------|

e|---------12-12-------------12-12----------12-12------------12-12-|
B|---------12-12-------------12-12----------12-12------------12-12-|
G|-----------------------------------------------------------------|
D|-(2)-(2)-------(2)-(2)-(2)--------(2)-(2)-------(2)-(2)-(2)------|
A|-(2)-(2)-------(2)-(2)-(2)--------(2)-(2)-------(2)-(2)-(2)------|
D|-(2)-(2)-------(2)-(2)-(2)--------(2)-(2)-------(2)-(2)-(2)------|


Chorus


e|---------------------------------------------------------------------------------|
B|---------------------------------------------------------------------------------|
G|-9-9-9-9-9-9-9-9-9-9-9-9-9-9-9-9/12-12-12-12-12-12-12-12\11-11-11-11-11-11-11-11-| (x3)
D|-x-x-x-x-x-x-x-x-x-x-x-x-x-x-x-x-x--x--x--x--x--x--x--x--x--x--x--x--x--x--x--x--|
A|-7-7-7-7-7-7-7-7-7-7-7-7-7-7-7-7/10-10-10-10-10-10-10-10\9--9--9--9--9--9--9--9--|
D|---------------------------------------------------------------------------------|

e|-------------------------------|
B|-------------------------------|
G|-9-9-9-9-9-9-9-9/11------------|
D|-x-x-x-x-x-x-x-x-x--(let ring)-|
A|-7-7-7-7-7-7-7-7/9-------------|
D|-------------------------------|

e|---------------------------------------------------------------------------------|
B|---------------------------------------------------------------------------------|
G|-9-9-9-9-9-9-9-9-9-9-9-9-9-9-9-9/12-12-12-12-12-12-12-12\11-11-11-11-11-11-11-11-| (x3)
D|-x-x-x-x-x-x-x-x-x-x-x-x-x-x-x-x-x--x--x--x--x--x--x--x--x--x--x--x--x--x--x--x--|
A|-7-7-7-7-7-7-7-7-7-7-7-7-7-7-7-7/10-10-10-10-10-10-10-10\9--9--9--9--9--9--9--9--|
D|---------------------------------------------------------------------------------|

e|-------------------------------|
B|-------------------------------|
G|-9-9-9-9-9-9-9-9/14------------|
D|-x-x-x-x-x-x-x-x-x--(let ring)-|
A|-7-7-7-7-7-7-7-7/12------------|
D|-------------------------------|


Guitar 2

Intro


e|-3-3-3-3-3h5p3h5p3-3-3-3-3h5p3h5p3-3-3-3-3-3-3-2-2-2-2-2-2-2-2-|
B|-5-5-5-5-5-5-5-5-5-5-5-5-5-5-5-5-5-5-5-5-5-5-5-5-5-5-5-5-5-5-5-|
G|-4-4-4-4-4-4-4-4-4-4-4-4-4-4-4-4-4-4-4-4-4-4-4-4-4-4-4-4-4-4-4-|
D|---------------------------------------------------------------|
A|---------------------------------------------------------------|
D|---------------------------------------------------------------|

e|-3-3-3-3-3h5p3h5p3-3-3-3-3h5p3h5p3-3-3-3-3-3-3-2------------|
B|-5-5-5-5-5-5-5-5-5-5-5-5-5-5-5-5-5-5-5-5-5-5-5-5-(let ring)-|
G|-4-4-4-4-4-4-4-4-4-4-4-4-4-4-4-4-4-4-4-4-4-4-4-4------------|
D|------------------------------------------------------------|
A|------------------------------------------------------------|
D|------------------------------------------------------------|


Verse

e|-----------------------------------------------------------------|
B|-----------------------------------------------------------------|
G|---0---2---0---0---0---2---0---0---0---2---0---0---0---2---0---0-| (x4)
D|-2---2---2---2---2---2---2---2-------------------0---0---0---0---|
A|---------------------------------3---3---3---3-------------------|
D|-----------------------------------------------------------------|

e|-----(12)-(12)-------(12)-(12)-|
B|-----(12)-(12)-------(12)-(12)-|
G|-------------------------------|
D|-2-2-----------2-2-2-----------|
A|-2-2-----------2-2-2-----------|
D|-2-2-----------2-2-2-----------|


Chorus

e|-------7---------------7------------------10----------------------10-------------|
B|---8-------8---8---8-------8---8----10----------10----10----10----------10----10-|
G|-9---9---9---9---9---9---9---9---12----12----12----12----11----11----11----11----| (x3)
D|---------------------------------------------------------------------------------|
A|---------------------------------------------------------------------------------|
D|---------------------------------------------------------------------------------|

e|-------7-------------|
B|---8-------8---8-----|
G|-9---9---9---9---/11-|
D|---------------------|
A|---------------------|
D|---------------------|


Solo/Bridge

e|---------------------------------------------------------------|
B|---------------------------------------------------------------|
G|---------------------------------5-5--5-5-5-5-5-5-5--5-5-5-5-5-|
D|-2-2-2-5--5-5-5--0-0-0-4--4-4-4--5-5--5-5-5-5-5-5-5--5-5-5-5-5-|
A|-2-2-2-5--5-5-5--0-0-0-4--4-4-4--3-3--3-3-3-3-3-3-3--3-3-3-3-3-|
D|-2-2-2-5--5-5-5--0-0-0-4--4-4-4--------------------------------|

e|---------------------------------------------------------------|
B|---------------------------------------------------------------|
G|---------------------------------5-5--5-5-5-5-5-5-5--5-5-5-5-5-|
D|-2-2-2-5--5-5-5--0-0-0-4--4-4-4--5-5--5-5-5-5-5-5-5--5-5-5-5-5-|
A|-2-2-2-5--5-5-5--0-0-0-4--4-4-4--3-3--3-3-3-3-3-3-3--3-3-3-3-3-|
D|-2-2-2-5--5-5-5--0-0-0-4--4-4-4--------------------------------|

e|-------------------------------------------------|---|---|
B|-------------------------------------------------|---|---|
G|-------------------------------------------------|---|---|
D|-7-7-7-7-7-7-7-7-9-9-9-9-9-9-9-9-2-2-2-2-2-2-2-2-|-5-|-0-|
A|-7-7-7-7-7-7-7-7-9-9-9-9-9-9-9-9-2-2-2-2-2-2-2-2-|-5-|-0-|
D|-7-7-7-7-7-7-7-7-9-9-9-9-9-9-9-9-2-2-2-2-2-2-2-2-|-5-|-0-|

e|-----------------------------------------------------------------------------------------------|
B|-----------------------------------------------------------------------------------------------|
G|---------------------------------------------------------------7-7-7-7-7-7-7-7-7-7-7-7-7-7-7-7-|
D|-7-7-7-7-7-7-7-7-9-9-9-9-9-9-9-9-2-2-2--2-2-2--2-2-2--2-2-2--2/7-7-7-7-7-7-7-7-7-7-7-7-7-7-7-7-|
A|-7-7-7-7-7-7-7-7-9-9-9-9-9-9-9-9-2-2-2--2-2-2--2-2-2--2-2-2--2/5-5-5-5-5-5-5-5-5-5-5-5-5-5-5-5-|
D|-7-7-7-7-7-7-7-7-9-9-9-9-9-9-9-9-2-2-2--2-2-2--2-2-2--2-2-2--2/--------------------------------|

e|-----(12)-(12)-------(12)-(12)-----(12)-(12)-------(12)-(12)-|
B|-----(12)-(12)-------(12)-(12)-----(12)-(12)-------(12)-(12)-|
G|-------------------------------------------------------------|
D|-2-2-----------2-2-2-----------2-2-----------2-2-2-----------|
A|-2-2-----------2-2-2-----------2-2-----------2-2-2-----------|
D|-2-2-----------2-2-2-----------2-2-----------2-2-2-----------|


Chorus

e|-------7---------------7------------------10----------------------10-------------|
B|---8-------8---8---8-------8---8----10----------10----10----10----------10----10-|
G|-9---9---9---9---9---9---9---9---12----12----12----12----11----11----11----11----| (x3)
D|---------------------------------------------------------------------------------|
A|---------------------------------------------------------------------------------|
D|---------------------------------------------------------------------------------|

e|-------7-------------|
B|---8-------8---8-----|
G|-9---9---9---9---/11-|
D|---------------------|
A|---------------------|
D|---------------------|

e|-------7---------------7------------------10----------------------10-------------|
B|---8-------8---8---8-------8---8----10----------10----10----10----------10----10-|
G|-9---9---9---9---9---9---9---9---12----12----12----12----11----11----11----11----| (x3)
D|---------------------------------------------------------------------------------|
A|---------------------------------------------------------------------------------|
D|---------------------------------------------------------------------------------|

e|-------7-------------|
B|---8-------8---8-----|
G|-9---9---9---9---/14-|
D|---------------------|
A|---------------------|
D|---------------------|



************************************

| /   slide up
| \   slide down
| h   hammer-on
| p   pull-off
| x   Mute note


************************************
Tap to rate this tab
 
# A B C D E F G H I J K L M N O P Q R S T U V W X Y Z