Paramore - Pressure Acoustic tab

-------------------------------------------------------------------------------
			Pressure Acoustic - Paramore
-------------------------------------------------------------------------------
Tabbed by: Alexander Xing - http://www.youtube.com/alexanderx22
Watch me playing at: http://www.youtube.com/watch?v=-IwzVclNUs8

Tuning: Drop C# or Drop C (depending on their show) CD version = Drop D

Intro Lead:

eb||----------------|-------------------|----------------|------------------||
Bb||----------------|-------------------|----------------|------------------||
Gb||-11-11-11/9-9-9-|-14-14-14/11-11-11-|-11-11-11/9-9-9-|-6-6-6/7-7-7------||
Db||-x--x--x--x-x-x-|-x--x--x--x--x--x--|-x--x--x--x-x-x-|-x-x-x-x-x-x-(2x)-||
Ab||-9--9--9-/7-7-7-|-12-12-12/9--9--9--|-9--9--9/-7-7-7-|-4-4-4/5-5-5------||
Db||----------------|-------------------|----------------|------------------||


Intro Rhythm:

eb||----------------|-------------------|----------------|------------------||
Bb||----------------|-------------------|----------------|------------------||
Gb||--7-7-7--7-7-7--|---7-7-7--7-7-7----|--7-7-7--7-7-7--|-7-7-7--7-7-7-----||
Db||--x-x-x--x-x-x--|---0-0-0--0-0-0----|--5-5-5--5-5-5--|-0-0-0--0-0-0-(2x)||
Ab||--9-9-9--9-9-9--|---0-0-0--0-0-0----|--5-5-5--5-5-5--|-0-0-0--0-0-0-----||
Db||--9-9-9--9-9-9--|---0-0-0--0-0-0----|--5-5-5--5-5-5--|-0-0-0--0-0-0-----||


Verse 1 Lead & Rhythm:

eb||-----------|-----------|-----------|------------||
Bb||-----------|-----------|-----------|------------||
Gb||-----------|-----------|-----------|------------||
Db||9-9-(x)---9/5-5-(x)---5|0-0-(x)---0|4-4-(x)---4/|| (2x)
Ab||9-9-(x)---9/5-5-(x)---5|0-0-(x)---0|4-4-(x)---4/||
Db||9-9-(x)---9/5-5-(x)---5|0-0-(x)---0|4-4-(x)---4/||


Verse 2 Lead:

eb||----------------|----------------|----------------|-------------5-------||
Bb||--7--7--7--7-7--|--5--5--5--5-5--|--5--5--5--5-5--|--5--5---------------||
Gb||--7--7--7--7-7--|--7--7--7--7-7--|--7--7--7--7-7--|--6--6--6h7----------||
Db||----------------|----------------|----------------|---------------------||
Ab||----------------|----------------|----------------|---------------------||
Db||----------------|----------------|----------------|---------------------||


eb||----------------|----------------|----------------|-------5-------------||
Bb||--7--7--7--7-7--|--5--5--5--5-5--|--5--5--5--5-5--|---------------------||
Gb||--7--7--7--7-7--|--7--7--7--7-7--|--7--7--7--7-7--|--6h7-----7----------||
Db||----------------|----------------|----------------|---------------------||
Ab||----------------|----------------|----------------|---------------------||
Db||----------------|----------------|----------------|---------------------||


Verse 2 Rhythm:

eb||----------------|----------------|----------------|---------------------||
Bb||----------------|----------------|----------------|---------------------||
Gb||----------------|----------------|----------------|---------------------||
Db||--9--9--9--9-9--|--5--5--5--5-5--|--0--0--0--0-0--|--4--4--4--4-4--(2x)-||
Ab||--9--9--9--9-9--|--5--5--5--5-5--|--0--0--0--0-0--|--4--4--4--4-4-------||
Db||--9--9--9--9-9--|--5--5--5--5-5--|--0--0--0--0-0--|--4--4--4--4-4-------||


Chorus Lead:

Part 1:

eb||-----------------|-----------------|-----------------|------------------||
Bb||-------10--------|-------10--------|-------10--------|------------------||
Gb||---7-------7---7-|---7-------7---7-|---6-------6---6-|---7--------------||
Db||-9---9-------9---|-7---7-------7---|-7---7-------7---|-9---9------------||
Ab||-----------------|-----------------|-----------------|------------------||
Db||-----------------|-----------------|-----------------|------------------||

Part 2:

eb||-----------------|-----------------|-----------------|------------------||
Bb||-------10--------|-------10--------|-------10--------|-------10---------||
Gb||---7-------7---7-|---7-------7---7-|---6-------6---6-|---7-------7---7--||
Db||-9---9-------9---|-7---7-------7---|-7---7-------7---|-9---9-------9----||
Ab||-----------------|-----------------|-----------------|------------------||
Db||-----------------|-----------------|-----------------|------------------||

[Play it 2 times]


Chorus Rhythm:

Part 1:

eb||-----------------|-----------------|---[Important]---|------------------||
Bb||-----------------|-----------------|---DO-NOT-hit----|------------------||
Gb||--7-7-7-7-7--7---|--7-7-7-7-7--7---|--these-strings-!|--7-7-7--11-11-11-||
Db||--5-5-5-5-5--5---|--0-0-0-0-0--0---|--7-7-7-7-7--7---|--5-5-5--x--x--x--||
Ab||--5-5-5-5-5--5---|--0-0-0-0-0--0---|--5-5-5-5-5--5---|--5-5-5--9--9--9--||
Db||--5-5-5-5-5--5---|--0-0-0-0-0--0---|--5-5-5-5-5--5---|--5-5-5-----------||

Part 2:

eb||-----------------|-----------------|------[Tip]------|------------------||
Bb||-----------------|-----------------|----Mute-with----|------------------||
Gb||--7-7-7-7-7--7---|--7-7-7-7-7--7---|---index-finger--|--7-7-7-7-7--7----||
Db||--5-5-5-5-5--5---|--0-0-0-0-0--0---|--7-7-7-7-7--7---|--5-5-5-5-5--5----||
Ab||--5-5-5-5-5--5---|--0-0-0-0-0--0---|--5-5-5-5-5--5---|--5-5-5-5-5--5----||
Db||--5-5-5-5-5--5---|--0-0-0-0-0--0---|--5-5-5-5-5--5---|--5-5-5-5-5--5----||

[Play it 2 times]


[Repeat the Verse > Chorus > Intro]


Bridge Lead:

eb||--------9-----------|--------9-----------|--------9-----------|--------9-----------||
Bb||---10-------10---10-|---10-------10---10-|---10-------10---10-|---10-------10---10-||
Gb||------7---7----7----|------7---7----7----|------7---7----7----|------7---7----7----||
Db||-9------------------|-9------------------|-0------------------|--------------------||
Ab||--------------------|--------------------|--------------------|-9------------------||
Db||--------------------|--------------------|--------------------|--------------------||

Play it 4 times

Bridge Lead (ending):
(Rhythm guitar pause)

eb||--------9-----------|--------9--------||
Bb||---10-------10---10-|---10------------||
Gb||------7---7----7----|------7----------||
Db||-9------------------|-9---------------||
Ab||--------------------|-----------------||
Db||--------------------|-----------------||


[Rhythm chords for the bridge are same as verse 2]
(Hit only low E string and use palm muting at the first 2 times)


After the bridge, play chorus part 2 twice, then part 1 twice, and hit the final note
(After playing chorus part 2, mute all the strings and strum it to simulate the drums, 
then continue the part 1)

eb||----------------||
Bb||----------------||
Gb||---2------------||
Db||---0------------||
Ab||---0------------||
Db||---0------------||

Good luck, if you have any further question(s), send me a PM at YouTube

************************************

| /   slide
| x   Mute note
|(x)  Slap
| h   hammer-on

************************************
Tap to rate this tab
 
# A B C D E F G H I J K L M N O P Q R S T U V W X Y Z