Song name
# A B C D E F G H I J K L M N O P Q R S T U V W X Y Z

Paramore - Hallelujah tab

Hey! What up? ^^ anyways thanks for choosing my tabs, i cab't thanks u enough! And i got 
this between the app songsterr and by ear too, also i got to knw each part thanks to 
The Final Riot! no copyright infrigement inteded. Enjoy!


=============
Rhythm Guitar
=============


INTRO:
e|---7-7-7-9-9-9-11-11-11-14-14-14-14-14-14-14-14-------------|
B|---0-0-0-0-0-0--0--0--0--0--0-11-11-11-11-11-11-------------|
G|------------------------------------------------------------| x6 Times
D|------------------------------------------------------------|
A|------------------------------------------------------------|
D|------------------------------------------------------------|

VERSE:
e|------------------------------------------------------------|
B|------------------------------------------------------------|
G|--11-11-11--8-8--8--10-10-10--------------------------------| x4 Times
D|---9-9--9---6-6--6---8-8--8---------------------------------|
A|---9-9--9---6-6--6---8-8--8---------------------------------|
D|---9-9--9---6-6--6---8-8--8---------------------------------|

END ON:
e|---------|
B|---------|
G|---11----|
D|----9----|
A|----9----|
D|----9----|

CHORUS:
e|---7-7-7-9-9-9-11-11-11-14-14-14-14-14-14-14-14-------------|
B|---0-0-0-0-0-0--0--0--0--0--0-11-11-11-11-11-11-------------|
G|------------------------------------------------------------| x4 Times
D|------------------------------------------------------------|
A|------------------------------------------------------------|
D|------------------------------------------------------------|

e|-------11-----11-------6-7-----------------------------------|
B|------------9-----9------------------------------------------|
G|---8-9----8--------------------------------------------------| x2 Times
D|-------------------------------------------------------------|
A|-------------------------------------------------------------|
D|-------------------------------------------------------------|

VERSE 2:
e|------------------------------------------------------------|
B|------------------------------------------------------------|
G|--11----8-8--8----10-10---10--------------------------------|
D|---9----6-6--6----8--8----8---------------------------------|
A|---9----6-6--6----8--8----8---------------------------------|
D|---9----6-6--6----8--8----8---------------------------------|

e|------------------------------------------------------------|
B|------------------------------------------------------------|
G|---11-11---11---8--8---8----10-10---10----------------------|x3 Times
D|---9--9----9----6--6---6----8--8----8-----------------------|
A|---9--9----9----6--6---6----8--8----8-----------------------|
D|---9--9----9----6--6---6----8--8----8-----------------------|

END ON:
e|------------|
B|------------|
G|----11~-----|
D|-----9~-----|
A|-----9~-----|
D|-----9~-----|

CHORUS 2:
e|---7-7-7-9-9-9-11-11-11-14-14-14-14-14-14-14-14-------------|
B|---0-0-0-0-0-0--0--0--0--0--0-11-11-11-11-11-11-------------|
G|------------------------------------------------------------| x4 Times
D|------------------------------------------------------------|
A|------------------------------------------------------------|
D|------------------------------------------------------------|

e|-------11-----11-------6-7-----------------------------------|
B|------------9-----9------------------------------------------|
G|---8-9----8--------------------------------------------------| x2 Times
D|-------------------------------------------------------------|
A|-------------------------------------------------------------|
D|-------------------------------------------------------------|

BREAKDOWN:
e|------------------------------------------------------------|-\- |
B|------------------------------------------------------------| -- |
G|------------------------------------------------------------| -- |
D|---1-1-1--2-2-2--6-6-6--9-9-9-9-9-9-9-----------------------| -- |
A|---1-1-1--2-2-2--6-6-6--9-9-9-9-9-9-9-----------------------| -- |
D|---1-1-1--2-2-2--6-6-6--9-9-9-9-9-9-9-----------------------| -- |
     * * *  * * *  * * *    * *       *                          |x2 Times
                                                                 |
e|------------------------------------------------------------| -- |
B|------------------------------------------------------------| -- |
G|------------------------------------------------------------| -- |
D|---1-1-1--2-2-2--4-4-4-4-4-4-4-4-4-4------------------------| -- |
A|---1-1-1--2-2-2--4-4-4-4-4-4-4-4-4-4------------------------| -- |
D|---1-1-1--2-2-2--4-4-4-4-4-4-4-4-4-4---------------------------- |
     * * *  * * *  * * *   * *       *

e|------------------------------------------------------------|-\- |
B|------------------------------------------------------------| -- |
G|------------------------------------------------------------| -- |
D|---1-1-1--2-2-2--6-6-6--9-9-9-9-9-9-9-----------------------| -- |
A|---1-1-1--2-2-2--6-6-6--9-9-9-9-9-9-9-----------------------| -- |
D|---1-1-1--2-2-2--6-6-6--9-9-9-9-9-9-9-----------------------| -- |
                                                                 |x 3 Times
                                                                 |
e|------------------------------------------------------------| -- |
B|------------------------------------------------------------| -- |
G|------------------------------------------------------------| -- |
D|---1-1-1--2-2-2--4-4-4-4-4-4-4-4-4-4------------------------| -- |
A|---1-1-1--2-2-2--4-4-4-4-4-4-4-4-4-4------------------------| -- |
D|---1-1-1--2-2-2--4-4-4-4-4-4-4-4-4-4---------------------------- |

CHORUS 3:
e|---7-7-7-9-9-9-11-11-11-14-14-14-14-14-14-14-14-------------|
B|---0-0-0-0-0-0--0--0--0--0--0-11-11-11-11-11-11-------------|
G|------------------------------------------------------------| x4 Times
D|------------------------------------------------------------|
A|------------------------------------------------------------|
D|------------------------------------------------------------|

e|-------11-----11-------6-7-----------------------------------|
B|------------9-----9------------------------------------------|
G|---8-9----8--------------------------------------------------| x2 Times
D|-------------------------------------------------------------|
A|-------------------------------------------------------------|
D|-------------------------------------------------------------|

END ON:
e|------------|
B|------------|
G|----11~-----|
D|-----9~-----|
A|-----9~-----|
D|-----9~-----|




===========
LEAD GUITAR
===========

INTRO:
e|-----------------------------------------------------------|
B|-----------------------------------------------------------|
G|-----------------------------------------------------------|
D|---X-X----9---------6--------2-----------------------------|
A|---X-X----9-(x16)---6-(x6)---2-(x10)-----------------------|
D|---X-X----9---------6--------2-----------------------------|

VERSE:
e|-----------------------------------------------------------|
B|-----------------------------------------------------------|
G|-----------------------------------------------------------|
D|-9-9--9---6-6--6---8-8--8---9-9--9---6-6--6---8-8--8-------|
A|-9-9--9---6-6--6---8-8--8---9-9--9---6-6--6---8-8--8-------|
D|-9-9--9---6-6--6---8-8--8---9-9--9---6-6--6---8-8--8-------|

e|--------------0-0-2-2-7-7-6-6-6-6---------0-0-----------------|
B|--0-0-2-2-4-4---------------------0-0-2-2-----4-4-2-2-4-4-4-4-|
G|--------------------------------------------------------------| x2 Times
D|--------------------------------------------------------------|
A|--------------------------------------------------------------|
D|--------------------------------------------------------------|

PRE-CHORUS:
e|----7-7-7-9-9-9-11-11-11-14-14-14-14-14-14-14-----------------|
B|----0-0-0-0-0-0--0--0--0--0--0-11-11-11-11-11-----------------|
G|--------------------------------------------------------------| x2 Times
D|--------------------------------------------------------------|
A|--------------------------------------------------------------|
D|--------------------------------------------------------------|

CHORUS:
e|---------------------------------------------------------------|
B|---------------------------------------------------------------|
G|---------------------------------------------------------------| x2 Times
D|-9-9-9-9-9-9-9-9-9-9-9-9-9-9--6-6-6-6-6-6--2-2-2-2-2-2-2-2-2-2-|
A|-9-9-9-9-9-9-9-9-9-9-9-9-9-9--6-6-6-6-6-6--2-2-2-2-2-2-2-2-2-2-|
D|-9-9-9-9-9-9-9-9-9-9-9-9-9-9--6-6-6-6-6-6--2-2-2-2-2-2-2-2-2-2-|

e|---------------------------------------------------------------|
B|---------------------------------------------------------------|
G|---------------------------------------------------------------| x2 Times
D|--9-9-9--9-9-9--9-9-9--9-9-9--6-6-6-6-6-6--2~------------------|
A|--9-9-9--9-9-9--9-9-9--9-9-9--6-6-6-6-6-6--2~------------------|
D|--9-9-9--9-9-9--9-9-9--9-9-9--6-6-6-6-6-6--2~------------------|

VERSE 2:
e|---------------------------------------------------------------|
B|---------------------------------------------------------------|
G|---------------------------------------------------------------|
D|----9~---6-6--6---8-8--8---9-9--9---6-6--6---8-8--8------------|
A|----9~---6-6--6---8-8--8---9-9--9---6-6--6---8-8--8------------|
D|----9~---6-6--6---8-8--8---9-9--9---6-6--6---8-8--8------------|

e|----------------0-0-2-2-7-7-6-6-6-6-------------0-0------------|
B|----0-0-2-2-4-4---------------------0-0-2-2-4-4-----4-4-4-4----|
G|---------------------------------------------------------------| x2 Times
D|---------------------------------------------------------------|
A|---------------------------------------------------------------|
D|---------------------------------------------------------------|

PRE-CHORUS:
e|----7-7-7-9-9-9-11-11-11-14-14-14-14-14-14-14-----------------|
B|----0-0-0-0-0-0--0--0--0--0--0-11-11-11-11-11-----------------|
G|--------------------------------------------------------------|
D|--------------------------------------------------------------|
A|--------------------------------------------------------------|
D|--------------------------------------------------------------|

e|----------14--------14-------14--------------------------------|
B|----11h12-----11h12----11h12-----------------------------------|
G|---------------------------------------------------------------|
D|---------------------------------------------------------------|
A|---------------------------------------------------------------|
D|---------------------------------------------------------------|

CHORUS:
e|---------------------------------------------------------------|
B|---------------------------------------------------------------|
G|---------------------------------------------------------------| x2 Times
D|-9-9-9-9-9-9-9-9-9-9-9-9-9-9--6-6-6-6-6-6--2-2-2-2-2-2-2-2-2-2-|
A|-9-9-9-9-9-9-9-9-9-9-9-9-9-9--6-6-6-6-6-6--2-2-2-2-2-2-2-2-2-2-|
D|-9-9-9-9-9-9-9-9-9-9-9-9-9-9--6-6-6-6-6-6--2-2-2-2-2-2-2-2-2-2-|

e|---------------------------------------------------------------|
B|---------------------------------------------------------------|
G|---------------------------------------------------------------| x2 Times
D|--9-9-9--9-9-9--9-9-9--9-9-9--6-6-6-6-6-6--2~------------------|
A|--9-9-9--9-9-9--9-9-9--9-9-9--6-6-6-6-6-6--2~------------------|
D|--9-9-9--9-9-9--9-9-9--9-9-9--6-6-6-6-6-6--2~------------------|

BREAKDOWN:
e|---7--x-x--7--x-x--7--x-x--9-9-9-9--6-6-6-----------------------|
B|---x--x-x--x--x-x--x--x-x--x-x-x-x--x-x-x-----------------------|
G|---4--x-x--4--x-x--4--x-x--6-6-6-6--3-3-3-----------------------|
D|----------------------------------------------------------------|
A|----------------------------------------------------------------|
D|----------------------------------------------------------------|

e|---7-7-7-7-7-7-7-7-7--6-6-6-6-6-6-6----------------------------|
B|---x-x-x-x-x-x-x-x-x--x-x-x-x-x-x-x----------------------------|
G|---4-4-4-4-4-4-4-4-4--3-3-3-3-3-3-3----------------------------|
D|---------------------------------------------------------------|
A|---------------------------------------------------------------|
D|---------------------------------------------------------------|

e|---7-7-7--6-6-6------------------------------------------------|
B|---x-x-x--x-x-x--7-7-7-7-7-7-7-7-7-7---------------------------|
G|---4-4-4--3-3-3--x-x-x-x-x-x-x-x-x-x---------------------------| x4 Times
D|-----------------4-4-4-4-4-4-4-4-4-4---------------------------|
A|---------------------------------------------------------------|
D|---------------------------------------------------------------|

e|------------------------------7~-9~-11~-12~-11-----------------|
B|---7~--7-7-7-7-7-7---------------------------------------------|
G|-------------------9-9-9-8-8-8---------------------------------|
D|---------------------------------------------------------------|
A|---------------------------------------------------------------|
D|---------------------------------------------------------------|

CHORUS:
e|---------------------------------------------------------------|
B|---------------------------------------------------------------|
G|---------------------------------------------------------------| x2 Times
D|-9-9-9-9-9-9-9-9-9-9-9-9-9-9--6-6-6-6-6-6--2-2-2-2-2-2-2-2-2-2-|
A|-9-9-9-9-9-9-9-9-9-9-9-9-9-9--6-6-6-6-6-6--2-2-2-2-2-2-2-2-2-2-|
D|-9-9-9-9-9-9-9-9-9-9-9-9-9-9--6-6-6-6-6-6--2-2-2-2-2-2-2-2-2-2-|

e|---------------------------------------------------------------|
B|---------------------------------------------------------------|
G|---------------------------------------------------------------| x2 Times
D|--9-9-9--9-9-9--9-9-9--9-9-9--6-6-6-6-6-6--2~------------------|
A|--9-9-9--9-9-9--9-9-9--9-9-9--6-6-6-6-6-6--2~------------------|
D|--9-9-9--9-9-9--9-9-9--9-9-9--6-6-6-6-6-6--2~------------------|

END ON:
e|-------------|
B|-------------|
G|-------------|
D|---9-9--9~---|
A|---9-9--9~---|
D|---9-9--9~---|
Tap to rate this tab
 
# A B C D E F G H I J K L M N O P Q R S T U V W X Y Z