Song name
# A B C D E F G H I J K L M N O P Q R S T U V W X Y Z

Paramore - Renegade tab

-------------------------------------------------------------------------------
			    Paramore - Renegade
-------------------------------------------------------------------------------

Tabbed by: Jared Lim
Email: jared3225@gmail.com
Tuning: Drop D

This is (what I think) the only Renegade tab in existence!
I started tabbing this the second I heard it.
PS : This woudn't have been possible without RTMorasonMD's HD video of Renegade at FBR15!

;D Have fun!

**************ARRANGEMENT**************
1. INTRO/MAIN RIFF
2. VERSE x2
3. 1ST CHORUS
4. INTRO/MAIN RIFF (WITHOUT SECOND PART)
5. VERSE x2
6. PRE-CHORUS
7. 2ND CHORUS
8. PRE-CHORUS
9. BRIDGE
10. FINAL CHORUS
***************************************


   INTRO/MAIN RIFF:
e|---------------------------------------------------------------------------|
B|---------------------------------------------------------------------------|
G|-4-4-4-8-8-6-6-6-6-6-6-6-6-6-6-6-------------------------------------------| x2
D|-4-4-4-8-8-6-6-6-6-6-6-6-6-6-6-6-------------------------------------------|
A|-1-1-1-6-6-4-4-4-4-4-4-4-4-4-4-4-------------------------------------------|
D|---------------------------------------------------------------------------|

   AFTER THE FIRST CHORUS, SKIP THE NOTES BELOW -----
e|---------------------------------------------------------------------------|
B|---------------------------------------------------------------------------|
G|---------------------------------------------------------------------------|
D|-4------6------------------------------------------------------------------|
A|-4-x16--6-x16--------------------------------------------------------------|
D|-4------6------------------------------------------------------------------|


   VERSE:
e|---------------------------------------------------------------------------|
B|---------------------------------------------------------------------------|
G|-4-4-4-8-8-6-6-6-6-6-6-6-6-6-6-6-------------------------------------------| x2
D|-4-4-4-8-8-6-6-6-6-6-6-6-6-6-6-6-------------------------------------------|
A|-1-1-1-6-6-4-4-4-4-4-4-4-4-4-4-4-------------------------------------------|
D|---------------------------------------------------------------------------|
   PALM MUTED*********************

e|---------------------------------------------------------------------------|
B|---------------------------------------------------------------------------|
G|---------------------------------------------------------------------------|
D|-4------6------------------------------------------------------------------|
A|-4-x16--6-x16--------------------------------------------------------------|
D|-4------6------------------------------------------------------------------|
   PALM MUTED*********************


   1ST CHORUS:
e|---------------------------------------------------------------------------|
B|---------------------------------------------------------------------------|
G|---------------------------------------------------------------------------|
D|-8-----11------4------8-----6------4---------------------------------------| 
A|-8-x6--11-x10--4-x16--8-x6--6-x10--4-x16-----------------------------------|
D|-8-----11------4------8-----6------4---------------------------------------|

e|---------------------------------------------------------------------------|
B|---------------------------------------------------------------------------|
G|---------------------------------------------------------------------------|
D|-8-----11------4------8-----6------4------6--------------------------------|
A|-8-x6--11-x10--4-x16--8-x6--6-x10--4-x12--6-x3-----------------------------|
D|-8-----11------4------8-----6------4------6--------------------------------|


   PRE-CHORUS
e|---4-------4-------4-------4-----------------------------------------------|
B|-2---2---2---2---2---2---2---2---------------------------------------------|
G|---------------------------------------------------------------------------| x2
D|---------------------------------------------------------------------------|
A|---------------------------------------------------------------------------|
D|---------------------------------------------------------------------------|


   2ND CHORUS:
e|---------------------------------------------------------------------------|
B|---------------------------------------------------------------------------|
G|---------------------------------------------------------------------------| x2
D|-8-----11------4------8-----6------4---------------------------------------| 
A|-8-x6--11-x10--4-x16--8-x6--6-x10--4-x16-----------------------------------|
D|-8-----11------4------8-----6------4---------------------------------------|


   BRIDGE:
e|---------------------------------------------------------------------------|
B|---------------------------------------------------------------------------|
G|-4-4-4-8-8-6-6-6-6-6-6-6-6-6-6-6-------------------------------------------| x2
D|-4-4-4-8-8-6-6-6-6-6-6-6-6-6-6-6-------------------------------------------|
A|-1-1-1-6-6-4-4-4-4-4-4-4-4-4-4-4-------------------------------------------|
D|---------------------------------------------------------------------------|

e|---------------------------------------------------------------------------|
B|---------------------------------------------------------------------------|
G|---------------------------------------------------------------------------|
D|-4------6---------------6--------------------------------------------------|
A|-4-x16--6-x16-----------6-x3-----------------------------------------------|
D|-4------6---------------6--------------------------------------------------|
                1 & 2 & 3 &


   FINAL CHORUS:
e|---------------------------------------------------------------------------|
B|---------------------------------------------------------------------------|
G|---------------------------------------------------------------------------| x2
D|-8-----11------4------8-----6------4---------------------------------------| 
A|-8-x6--11-x10--4-x16--8-x6--6-x10--4-x16-----------------------------------|
D|-8-----11------4------8-----6------4---------------------------------------|

e|---------------------------------------------------------------------------|
B|---------------------------------------------------------------------------|
G|---------------------------------------------------------------------------|
D|-8-----6------4~~~~~~~~~---------------------------------------------------| 
A|-8-x6--6-x10--4~~~~~~~~~---------------------------------------------------|
D|-8-----6------4~~~~~~~~~---------------------------------------------------|


-------------------------------------------------------------------------------
	   THANKS FOR READING MY TAB! REMEMBER TO RATE AND COMMENT!
-------------------------------------------------------------------------------
Tap to rate this tab
 
# A B C D E F G H I J K L M N O P Q R S T U V W X Y Z