Song name
# A B C D E F G H I J K L M N O P Q R S T U V W X Y Z

Paramore - Renegade tab

-----------------------------------------------------------------------------
			     Renegade- Paramore
-----------------------------------------------------------------------------
Tabbed by: Tash West

Tuning: D A D G B e

RHYTHM GUITAR

                        ||||||| Intro |||||||
e|-----------------------------------------------------------------|
B|-----------------------------------------------------------------|
G|---3-3-3-----8-8----6-6-6-6-6-6-6-6------------------------------| X2
D|---1-1-1-----8-8----6-6-6-6-6-6-6-6------------------------------|
A|---1-1-1-----6-6----4-4-4-4-4-4-4-4------------------------------|
D|---1-1-1---------------------------------------------------------|

e|-----------------------------------------------------------------|
B|-----------------------------------------------------------------|
G|---6---------8---------------------------------------------------| X1
D|---4-x16---6-x8--------------------------------------------------|
A|---4---------6---------------------------------------------------|
D|---4---------6---------------------------------------------------|

                       ||||||| Verse |||||||
e|-----------------------------------------------------------------|
B|-----------------------------------------------------------------|
G|---3-3-3-----8-8----6-6-6-6-6-6-6-6------------------------------| X2
D|---1-1-1-----8-8----6-6-6-6-6-6-6-6------------------------------|
A|---1-1-1-----6-6----4-4-4-4-4-4-4-4------------------------------|
D|---1-1-1---------------------------------------------------------|
   ***************Palm mute*****************************************
                                                                     [X2]
e|-----------------------------------------------------------------|
B|-----------------------------------------------------------------|
G|---6---------8---------------------------------------------------| X1
D|---4-x16---6-x16-------------------------------------------------|
A|---4---------6---------------------------------------------------|
D|---4---------6---------------------------------------------------|
   ***************Palm mute****************************************

                      ||||||| Chorus |||||||
e|-----------------------------------------------------------------|
B|-----------------------------------------------------------------|
G|---3-------6-------6---------------------------------------------| X4
D|---1-x8----6-x8----4-x16-----------------------------------------|
A|---1-------4-------4---------------------------------------------|
D|---1---------------4---------------------------------------------|

                      ||||||| Pre-intro |||||||
e|-----------------------------------------------------------------|
B|-----------------------------------------------------------------|
G|------------6-----------8---8------------------------------------|
D|------------6-----------8---8------------------------------------|
A|------------4-----------6---6------------------------------------|
D|-----------------------------------------------------------------|

                      ||||||| Re-Intro |||||||
e|-----------------------------------------------------------------|
B|-----------------------------------------------------------------|
G|---3-3-3-----8-8----6-6-6-6-6-6-6-6------------------------------| X2
D|---1-1-1-----8-8----6-6-6-6-6-6-6-6------------------------------|
A|---1-1-1-----6-6----4-4-4-4-4-4-4-4------------------------------|
D|---1-1-1---------------------------------------------------------|

                      ||||||| Verse |||||||
e|-----------------------------------------------------------------|
B|-----------------------------------------------------------------|
G|---3-3-3-----8-8----6-6-6-6-6-6-6-6------------------------------| X2
D|---1-1-1-----8-8----6-6-6-6-6-6-6-6------------------------------|
A|---1-1-1-----6-6----4-4-4-4-4-4-4-4------------------------------|
D|---1-1-1---------------------------------------------------------|
   ***************Palm mute****************************************
                                                                      [X2]
e|-----------------------------------------------------------------|
B|-----------------------------------------------------------------|
G|---6---------8---------------------------------------------------| X1
D|---4-x16---6-x16-------------------------------------------------|
A|---4---------6---------------------------------------------------|
D|---4---------6---------------------------------------------------|
   ***************Palm mute****************************************

                   ||||||| Break |||||||
e|-----------------------------------------------------------------|
B|-----------------------------------------------------------------|
G|---6----------6----------6--------8------------------------------| X1
D|---6-X12----4-X12---6-X12---6-X12--------------------------------|
A|---4----------4---------4----------6-----------------------------|
D|---------------4--------------------6----------------------------|
Listen to rhythm to work it out, sort of played in groups of 3

                      ||||||| Chorus |||||||
e|-----------------------------------------------------------------|
B|-----------------------------------------------------------------|
G|---3-------6-------6---------------------------------------------| X4
D|---1-x8----6-x8----4-x16-----------------------------------------|
A|---1-------4-------4---------------------------------------------|
D|---1---------------4---------------------------------------------|

                      ||||||| Bridge |||||||
e|-----------------------------------------------------------------|
B|-----------------------------------------------------------------|
G|----------------10---13----------------13------------------------| X1
D|---11---13----------------11---10--------------------------------|
A|-----------------------------------------------------------------|
D|-----------------------------------------------------------------|

e|-----------------------------------------------------------------|
B|-----------------------------------------------------------------|
G|---3-3-3-----8-8----6-6-6-6-6-6-6-6------------------------------| X2
D|---1-1-1-----8-8----6-6-6-6-6-6-6-6------------------------------|
A|---1-1-1-----6-6----4-4-4-4-4-4-4-4------------------------------|
D|---1-1-1---------------------------------------------------------|
                                                                        [X2]
e|-----------------------------------------------------------------|
B|-----------------------------------------------------------------|
G|---6---------8---------------------------------------------------| X1
D|---4-x16-----6-x16-----------------------------------------------|
A|---4---------6---------------------------------------------------|
D|---4---------6---------------------------------------------------|
On last time round, pause then play last chord another 3 times

                      ||||||| Chorus |||||||
e|-----------------------------------------------------------------|
B|-----------------------------------------------------------------|
G|---3-------6-------6---------------------------------------------| X5
D|---1-x8----6-x8----4-x16-----------------------------------------|
A|---1-------4-------4---------------------------------------------|
D|---1---------------4---------------------------------------------|
Sustain last chord on 5th time round
__________________________________________________________________________

LEAD GUITAR

                      ||||||| Intro |||||||
e|-----------------------------------------------------------------|
B|-----------------------------------------------------------------|
G|---3-3-3-----8-8----6-6-6-6-6-6-6-6------------------------------| X2
D|---1-1-1-----8-8----6-6-6-6-6-6-6-6------------------------------|
A|---1-1-1-----6-6----4-4-4-4-4-4-4-4------------------------------|
D|---1-1-1---------------------------------------------------------|

e|-----------------------------------------------------------------|
B|-----------------------------------------------------------------|
G|---6-------8--------5-------6------8------5------6------8--------| X1
D|---x-x8----x-x8-----x-x2----x-x2---x-x2---x-x2---x-x2---x-x2-----|
A|---4-------6--------3-------4------6------3------4------6--------|
D|-----------------------------------------------------------------|

                      ||||||| Verse |||||||
           ******* NO LEAD *********

                      ||||||| Chorus |||||||
e|-----------------------------------------------------------------|
B|-----------------------------------14---13---11------------------|
G|---------------10---13---10-----------------------13---10-x8-----|
D|---11---13-------------------------------------------------------|
A|-----------------------------------------------------------------|
D|-----------------------------------------------------------------|
                                                                     [X2]
e|-----------------------------------------------------------------|
B|-----------------------------------------------------------------|
G|---------13----------------------13------------------------------|
D|---11---------11---13---11---------11----------------------------|
A|-----------------------------------------------13-x16------------|
D|-----------------------------------------------------------------|

                      ||||||| Pre-intro |||||||
e|-----------------------------------------------------------------|
B|-----------------------------------------------------------------|
G|------------6-----------8---8------------------------------------|
D|------------x-----------x---x------------------------------------|
A|------------4-----------6---6------------------------------------|
D|-----------------------------------------------------------------|

                      ||||||| Re-Intro |||||||
e|-----------------------------------------------------------------|
B|-----------------------------------------------------------------|
G|---3-3-3-----8-8----6-6-6-6-6-6-6-6------------------------------| X2
D|---1-1-1-----8-8----6-6-6-6-6-6-6-6------------------------------|
A|---1-1-1-----6-6----4-4-4-4-4-4-4-4------------------------------|
D|---1-1-1---------------------------------------------------------|

                      ||||||| Verse |||||||
           ******* NO LEAD FIRST TIME ROUND *********
SECOND TIME:
e|-----------------------------------------------------------------|
B|-----------------14----------------------------------------------|
G|----13---13------------------------------------------------------|   X16
D|-----------------------------------------------------------------|
A|-----------------------------------------------------------------|
D|-----------------------------------------------------------------|

                      ||||||| Break |||||||
e|-----------------------------------------------------------------|
B|----------------14-----------------------------------------------|
G|---------13------------------------------------------------------|   X16
D|---11------------------------------------------------------------|
A|-----------------------------------------------------------------|
D|-----------------------------------------------------------------|

                      ||||||| Chorus |||||||
e|-----------------------------------------------------------------|
B|-----------------------------------14---13---11------------------|
G|---------------10---13---10-----------------------13---10-x8-----|
D|---11---13-------------------------------------------------------|
A|-----------------------------------------------------------------|
D|-----------------------------------------------------------------|
                                                                       [X2]
e|-----------------------------------------------------------------|
B|-----------------------------------------------------------------|
G|---------13----------------------13------------------------------|
D|---11---------11---13---11---------11----------------------------|
A|-----------------------------------------------13-x16------------|
D|-----------------------------------------------------------------|

                      ||||||| Bridge |||||||
e|-----------------------------------------------------------------|
B|-----------------------------------------------------------------|
G|---------13----------------13------------------------------------|   X8
D|---11---------11---11--------------------------------------------|
A|-----------------------------------------------------------------|
D|-----------------------------------------------------------------|

e|-----------------------------------------------------------------|
B|-----------------------------------------------------------------|
G|---3-3-3-----8-8----6-6-6-6-6-6-6-6------------------------------| X2
D|---1-1-1-----8-8----6-6-6-6-6-6-6-6------------------------------|
A|---1-1-1-----6-6----4-4-4-4-4-4-4-4------------------------------|
D|---1-1-1---------------------------------------------------------|
                                                                        [X2]
e|-----------------------------------------------------------------|
B|-----------------------------------------------------------------|
G|---6-------8--------5-------6------8------5------6-------8-------| X1
D|---x-x8---x-x8---x-x2--x-x2--x-x2--x-x2--x-x2--x-x2--------------|
A|---4-------6--------3------4-------6------3-------4------6-------|
D|-----------------------------------------------------------------|

                      ||||||| Chorus |||||||
e|-----------------------------------------------------------------|
B|-----------------------------------14---13---11------------------|
G|---------------10---13---10-----------------------13---10-x8-----|
D|---11---13-------------------------------------------------------|
A|-----------------------------------------------------------------|
D|-----------------------------------------------------------------|
                                                                       [X2]
e|-----------------------------------------------------------------|
B|-----------------------------------------------------------------|
G|---------13----------------------13------------------------------|
D|---11---------11---13---11---------11----------------------------|
A|-----------------------------------------------13-x16------------|
E|-----------------------------------------------------------------|

e|-----------------------------------------------------------------|
B|-----------------------------------------------------------------|
G|---------13----------------------13------------------------------|
D|---11---------11---13---11---------11----------------------------|
A|-----------------------------------------------13~---------------|
E|-----------------------------------------------------------------|

************************************

| /   slide up
| \   slide down
| h   hammer-on
| p   pull-off
| ~   vibrato
| +   harmonic
| x   Mute note
| b   Bend
| pb  Pre-bend
| br  Bend release
| pbr Pre-bend release
| brb Bend release bend

************************************
Tap to rate this tab
 
# A B C D E F G H I J K L M N O P Q R S T U V W X Y Z