Song name
# A B C D E F G H I J K L M N O P Q R S T U V W X Y Z

Paramore - Presure tab

This is my first tab but I'm pretty sure it's more or less 100% correct.
It's a really easy song to play and the only difficult part to tab was the rhythm.
I clicked on this song on the UG requests list and I'm sure you know the song is
indeed called "Pressure" not "presure". This song in Drop D tuning for both guitars.

Tabbed by: Allan749
E-mail: allan749@hotmail.com

Intro rhythm
e--------------------------------------------------------|
b--------------------------------------------------------|
g---7-7-7-7-7-7---7-7-7-7-7-7--7-7-7-7-7-7---7-7-7-7-7-7-|
d---x-x-x-x-x-x---0-0-0-0-0-0--7-7-7-7-7-7---0-0-0-0-0-0-|
a---9-9-9-9-9-9---0-0-0-0-0-0--5-5-5-5-5-5---0-0-0-0-0-0-|
D---9-9-9-9-9-9---0-0-0-0-0-0--5-5-5-5-5-5---0-0-0-0-0-0-|


Intro lead
e---------------------------------------------------------------|
b---------------------------------------------------------------|
g-11-11-11/9-9-9-14-14-14/11-11-11--11-11-11/9-9-9-6-6-6/7-7-7--|
d-x--x--x--x-x-x--x--x--x-x--x---x---x--x--x-x-x-x-x-x-x-x-x-x--|
a-9--9--9/ 7-7-7-12-12-12/9--9---9---9--9--9/7-7-7-4-4-4/5-5-5--|
D---------------------------------------------------------------|


Verse 1

Rhythm guitar (After the second time round the rhythm strumming pattern changes but it's 
easy to hear and figure out)
e-----------------------------------------|
b-----------------------------------------|
g-----------------------------------------|
d----9-9--9/5-5-5/0-0-0--4-4--4/----------|
a----9-9--9/5-5-5/0-0-0--4-4--4/-(4x)-----|
D----9-9--9/5-5-5/0-0-0--4-4--4/----------|



Lead guitar (this kicks in after the playing the rhythm verse riff for the second time)
e----------------------------------------------5--------------|
b--7-7-7-7-7-5-5-5-5-5--5-5-5-5-5--5-5------------------------|
g--7-7-7-7-7-7-7-7-7-7--7-7-7-7-7--6-6--6h7--7(quiet)---------|
d-------------------------------------------------------------|
a-------------------------------------------------------------|
D-------------------------------------------------------------|




Chorus rhythm
e----------------------------------------------|
b----------------------------------------------|
g--------------------^11^----------------------|
d----7----7--7--7-----x---7--7--7--7-----------|
a----5----0--4--5----^9 ^-5--0--4--5--(2x)-----|
D----5----0--4--5---------5--0--4--5-----------|

Chorus

Lead Chorus (there's 2 different endings to the riff in the chorus and they're both tabbed
e---------17--------------17---------------17----------|----------^14^--|
b----15-----15-------15-----15---15---14---------14----|----15----------|
g-16---16-----16--14----14----14---14----14---14----14-|-16----16-------|
d-----------------------------------------------------------------------| 1st ending
a-----------------------------------------------------------------------|
D-----------------------------------------------------------------------|

e--------17------------17--------------17--------|-------17---------|
b---15-----15------15----15--15----14-------14---|---15----15--15---|
g-16---16----16--14--14----14----14--14---14--14-|-16--16-----16----|
d-------------------------------------------------------------------| 2nd ending
a-------------------------------------------------------------------|
D-------------------------------------------------------------------|

2nd verse.

Chorus.

Repeat intro 3 times.


Lead Bridge
(Rhythm guitar is just the same as the verses)

e--------9----------------9--------------9----------------9------------|
b---10------10-----10-------10-----10------10---10---10-----10---10----|
g------7-------7------7--------7------7-------7---------7------7-------|
d-9--------------9---------------0-------------------------------------|
a--------------------------------------------------9-------------------|
D----------------------------------------------------------------------|

Chorus.

Key:

^ = bend

That's pretty much it, like I said easy song to play just the chorus might be a bit 
tricky to play at first but it doesn't take long to get the rhythm of it.
Tap to rate this tab
 
# A B C D E F G H I J K L M N O P Q R S T U V W X Y Z