Song name
# A B C D E F G H I J K L M N O P Q R S T U V W X Y Z

Paramore - In The Mourning tab

-------------------------------------------------------------------------------
			IN THE MOURNING/LANDSLIDE (LIVE) - Paramore
-------------------------------------------------------------------------------
Tabbed by: rockett97
Email: rockett97@hotmail.com

As seen live at the Fueled By Ramen 15th Anniversary concert
(http://www.youtube.com/watch?v=fYVpArcH47Y)

Tuning: Standard (eBGDAE) with Capo on the 3rd fret

(For the fingerpicking pattern, scroll all the way down!)

Intro

e|-0-0-0-|
B|-1-0-0-|
G|-0-0-2-| (x2)
D|-2-2-2-|
A|-3-2-0-|
E|-0-0-0-|

Verse

"You escape like a runaway train"
"Off the tracks and down again"
"My heart's beating like a steam boat tugging.."

e|-0-0-0-|
B|-1-0-0-|
G|-0-0-2-|
D|-2-2-2-|
A|-3-2-0-|
E|-0-0-0-|

"..All your burdens"
"On my shoulders"

e|-0-0-0-0-|
B|-1-0-0-0-|
G|-0-0-0-0-|
D|-2-2-0-2-|
A|-3-2-2-2-|
E|-x-x-3-0-|

Chorus

"In the mourning I'll rise"
"In the mourning I'll let you die"

e|-0-0-2(h3)-|
B|-1-0-3-----|
G|-0-0-2-----|
D|-2-2-0-----|
A|-3-2-0-----|
E|-0-0-0-----|

"In the mourning,.."

e|-0-0-0-(-0---3-3-)-|
B|-1-0-0-(-0h1-1p0-)-|
G|-0-0-2-(-2---2-2-)-|
D|-2-2-2-(-2---2-2-)-|
A|-3-2-0-(-0---0-0-)-|
E|-0-0-0-(-0---0-0-)-|

"All my sorry's"

e|-0-0-0-(-0---3-3-)-|
B|-1-0-0-(-0h1-1p0-)-|
G|-0-0-0-(-0---0-0-)-|
D|-2-2-0-(-0---0-0-)-|
A|-3-2-2-(-2---2-2-)-|
E|-0-0-3-(-3---3-3-)-|

(NOTE: the chords in parenthesis are something Taylor plays every now and then to mix it 
up a little.
If you listen to the recording you'll notice this.
I just put them in parenthesis here so you know you could use this aswell)

Verse

"And now there's nothing but time that's wasted"
"And words that have no backbone"
"And now it seems like the whole world's waiting"

e|-0-0-0-|
B|-1-0-0-|
G|-0-0-2-|
D|-2-2-2-|
A|-3-2-0-|
E|-0-0-0-|

"Can you hear the.."
"..Echoes fading?"

e|-0-0-0-0-|
B|-1-0-0-0-|
G|-0-0-0-0-|
D|-2-2-0-2-|
A|-3-2-2-2-|
E|-x-x-3-0-|

Chorus

"In the mourning I'll rise"
"In the mourning I'll let you die"

e|-0-0-2(h3)-|
B|-1-0-3-----|
G|-0-0-2-----|
D|-2-2-0-----|
A|-3-2-0-----|
E|-0-0-0-----|

"In the mourning,.."

e|-0-0-0-(-0---3-3-)-|
B|-1-0-0-(-0h1-1p0-)-|
G|-0-0-2-(-2---2-2-)-|
D|-2-2-2-(-2---2-2-)-|
A|-3-2-0-(-0---0-0-)-|
E|-0-0-0-(-0---0-0-)-|

"All my sorry's"

e|-0-0-0-(-0---3-3-)-|
B|-1-0-0-(-0h1-1p0-)-|
G|-0-0-0-(-0---0-0-)-|
D|-2-2-0-(-0---0-0-)-|
A|-3-2-2-(-2---2-2-)-|
E|-0-0-3-(-3---3-3-)-|

Bridge

"And it takes all my strength "

e|-x-x-x-|
B|-0-0-0-|
G|-0-0-0-|
D|-2-0-0-|
A|-2-0-2-|
E|-0-2-3-|


"(Not to dig you) up from the ground in which you lay, the biggest part of me"

e|-0-0-2h3-|
B|-1-0-3-3-|
G|-0-0-2-2-|
D|-2-2-0-0-|
A|-3-2-0-0-|
E|-0-0-0-0-|

"You were the greatest thing, and now you're just a memory .."

e|-0-0-0-0-0-|
B|-1-0-0h1p0-|
G|-0-0-2-2-2-|
D|-2-2-2-2-2-|
A|-3-2-0-0-0-|
E|-0-0-0-0-0-|

"To let go of"

e|-0-0-0-0-0-|
B|-1-0-0h1p0-|
G|-0-0-0-0-0-|
D|-2-2-0-0-0-|
A|-3-2-2-2-2-|
E|-0-0-3-3-3-|

Chorus

"In the mourning I'll rise"
"In the mourning I'll let you die"

e|-0-0-2(h3)-|
B|-1-0-3-----|
G|-0-0-2-----|
D|-2-2-0-----|
A|-3-2-0-----|
E|-0-0-0-----|

"In the mourning,.."

e|-0-0-0-(-0---3-3-)-|
B|-1-0-0-(-0h1-1p0-)-|
G|-0-0-2-(-2---2-2-)-|
D|-2-2-2-(-2---2-2-)-|
A|-3-2-0-(-0---0-0-)-|
E|-0-0-0-(-0---0-0-)-|

"All my sorry's"

e|-0-0-0-(-0---3-3-)-|
B|-1-0-0-(-0h1-1p0-)-|
G|-0-0-0-(-0---0-0-)-|
D|-2-2-0-(-0---0-0-)-|
A|-3-2-2-(-2---2-2-)-|
E|-0-0-3-(-3---3-3-)-|

LANDSLIDE

"Well I've been 'fraid of changing 'cause I.."

e|-3-3-3-|
B|-0-0-0-|
G|-0-0-0-|
D|-0-0-0-|
A|-2-2-2-|
E|-3-2-0-|

"..Built my life around you"

e|-0-0-0---3-3-|
B|-1-0-0h1-1p0-|
G|-0-0-2---2-2-|
D|-2-2-2---2-2-|
A|-3-2-0---0-0-|
E|-0-0-0---0-0-|

"But time makes bolder, children get older"

e|-3-3-3-|
B|-0-0-0-|
G|-0-0-0-|
D|-0-0-0-|
A|-2-2-2-|
E|-3-2-0-|

"And I'm getting older, too"

e|-0-0-0---3-3-|
B|-1-0-0h1-1p0-|
G|-0-0-2---2-2-|
D|-2-2-2---2-2-|
A|-3-2-0---0-0-|
E|-0-0-0---0-0-|

"So take this love and take it down"
"I climb a mountain then I turned around"
"I saw my reflection in the snow-covered hill"
"When the landslide brought me down"
"The landslide brought me down"

e|-0-0-0-(-0---3-3-)-|
B|-1-0-0-(-0h1-1p0-)-|
G|-0-0-2-(-2---2-2-)-|
D|-2-2-2-(-2---2-2-)-|
A|-3-2-0-(-0---0-0-)-|
E|-0-0-0-(-0---0-0-)-|

IN THE MOURNING FINAL CHORUS
(fingerpicking)

"In the mourning I'll rise"
"In the mourning I'll let you die"

e|----------------------------------------2-------3-------2---------|
B|-------1---------------0------------3-------3-------3-------3---2-|
G|---0-------0---0---0-------0---0--2---2---2---2---2---2---2---2---|
D|------------------------------------------------------------------|
A|-3---3---3---3---2---2---2---2------------------------------------|
E|------------------------------------------------------------------|

"In the mourning,.."

e|-------------------------------------------3---------------|
B|-------1---------------0---------------0h1----0---0--------|
G|---0-------0---0---0-------0---0---2-----------------2---2-|
D|-----------------------------------------------------------|
A|-3---3---3---3---2---2---2---2---0---0----------0------0---|
E|-----------------------------------------------------------|

"All my sorry's"

e|-----------------------------------------3-3-|
B|-------1---------------0-------------0h1---0-|
G|---0-------0---0---0-------0---0-----------0-|
D|-------------------------------------------0-|
A|-3---3---3---3---2---2---2---2-----2-------2-|
E|---------------------------------3---------3-|

NOTE: These single notes aren't all in the same tempo, so give the recording a listen if 
you can't figure it out.)


************************************

| h   hammer-on
| p   pull-off

************************************
Tap to rate this tab
# A B C D E F G H I J K L M N O P Q R S T U V W X Y Z