Song name
# A B C D E F G H I J K L M N O P Q R S T U V W X Y Z

Paramore - Missey Business tab

this is not my own work this is taken from many tabs

(0:14) INTRO/verse pt1
d#||-----------------|-----------------|-----------------|---------------------------|
A#||-----------------|-----------------|-----------------|---------------------------|
F#||-----------------|-----------------|-----------------|---------------------------|
C#||-4-4---4---------|-2-2---2-2-2---2-|-4-4---4---------|--------------0-0---0-0-0--|
G#||-4-4---4-2-4-2-4-|-2-2---2-2-2---2-|-4-4---4-2-4-2-4-|------0-0---0-0-0----------|
C#||-4-4---4---------|-2-2---2-2-2---2-|-4-4---4---------|--------------0-0---0-0-0--|

d#||-----------------|-----------------|-----------------|-----------------------|
A#||-----------------|-----------------|-----------------|-----------------------|
F#||-----------------|-----------------|-----------------|-----------------------|
C#||-4-4---4-------------|-2-2---2-2-2---2-|-4-4---4---------|-9-9-9-9-9-9-9-9---|
G#||-4-4---4-2-4-2-4-|-2-2---2-2-2---2-|-4-4---4-2-4-2-4-|-7-7-7-7-7-7-7-7-------|
C#||-4-4---4-------------|-2-2---2-2-2---2-|-4-4---4---------|-7-7-7-7-6-6-6-6---|

0:36) VERSE (Comes in during "I waited eight long months...")
d#||------------------------------|---------------------------|
A#||--7-----7--7-7-7-10-7-10-|--7-----7--7-7-7-10-7-10--------|
F#||------------------------------|---------------------------|
C#||-----------------------------|----------------------------|
G#||-----------------------------|----------------------------|
C#||-----------------------------|----------------------------|

d#||-------------------------|-------------------------|
A#||--7-----7--7-7-7-10-7-10-|--7-----7--7-7-7-5--5--5-|
F#||-------------------------|-------------------------|
C#||-------------------------|-------------------------|
G#||-------------------------|-------------------------|
C#||-------------------------|-------------------------|

d#||-------------------------|-------------------------|
A#||--7-----7--7-7-7-10-7-10-|--7-----7--7-7-7-10-7-10-|
F#||-------------------------|-------------------------|
C#||-------------------------|-------------------------|
G#||-------------------------|-------------------------|
C#||-------------------------|-------------------------|

d#||-------------------------|--7-----7--7-7-7/9--9----|
A#||--7-----7--7-7-7-10-7-10-|-------------------------|
F#||-------------------------|-------------------------|
C#||-------------------------|-------------------------|
G#||-------------------------|-------------------------|
C#||-------------------------|-------------------------|

(0:47) PRE-CHORUS (Palm muted)
d#||-----------------|-----------------|
A#||-----------------|-----------------|
F#||-----------------|-----------------|
C#||-4-4-4-4-4-4-4-4-|-2-2-2-2-2-------|
G#||-4-4-4-4-4-4-4-4-|-2-2-2-2-2-------|
C#||-4-4-4-4-4-4-4-4-|-2-2-2-2-2-------|

(0:50) CHORUS PT. 1 - Play x2
d#||-----------------|-----------------|-----------------|------------------------------|
A#||-7-7-7-7-7-7-7-7-|-----------------|-----------------|------------------------------|
F#||-x-x-x-x-x-x-x|-----6-6-6-6-6-6-6-6-|-----------------|-6-6-6-6---------------------|
C#||-4-4-4-4-4-4-4-4-|-7-7-7-7-7-7-7-7-|-4-4-4-4-4-4-4-4-|-7-7-7-7-6-6-6-6--------------|
G#||-5-5-5-5-5-5-5-5-|-7-7-7-7-7-7-7-7-|-2-2-2-2-2-2-2-2-|-4-4-4-4-4-4-4-4--------------|
C#||-------------------------|--------------------|-2-2-2-2-2-2-2-2-|-4-4-4-4-4-4-4-4---|

(1:01) CHORUS PT. 2
d#||-------------------------|-------------------------|
A#||-------------------------|-------------------------|
F#||-11----11----11----11----|-11----11----11-14-14-14-|
C#||--x-----x-----x-----x----|--x-----x-----x--x--x--x-|
G#||--9-----9-----9-----9----|--9-----9-----9-12-12-12-|
C#||-------------------------|-------------------------|




d#||-------------------------|-------------------------|
A#||-------------------------|-------------------------|
F#||-13----13----13----13----|-13----13----13-14-14-14-|
C#||--x-----x-----x-----x----|--x-----x-----x--x--x--x-|
G#||-11----11----11----11----|-11----11----11-12-12-12-|
C#||-------------------------|-------------------------|
      1  &  2  &  3  &  4  &    1  &  2  &  3  &  4  &
d#||-------------------------|-------------------------|
A#||-------------------------|-------------------------|
F#||-11----11----11----11----|-11----11----11-14-14-14-|
C#||--x-----x-----x-----x----|--x-----x-----x--x--x--x-|
G#||--9-----9-----9-----9----|--9-----9-----9-12-12-12-|
C#||-------------------------|-------------------------|
      1  &  2  &  3  &  4  &    1  &  2  &  3  &  4  &
d#||-------------------------|-------------------------|
A#||-------------------------|-------------------------|
F#||-13----13----13----13----|-18-18-18-18-16----------|
C#||--x-----x-----x-----x----|--x--x--x--x--x----------|
G#||-11----11----11----11----|-16-16-16-16-14----------|
C#||-------------------------|-------------------------|
      1  &  2  &  3  &  4  &    1  &  2  &  3  &  4  &

(1:12) POST-CHORUS
d#||-------------------------|-------------------------|
A#||-------------------------|-------------------------|
F#||-------------------------|-------------------------|
C#||--------------9-11--9-11-|-------------------------|
G#||-12-12----12-------------|-11-11----11-11-11----11-|
C#||-------------------------|-------------------------|
      1  &  2  &  3  &  4  &    1  &  2  &  3  &  4  &
d#||-------------------------|-------------------------|
A#||-------------------------|-------------------------|
F#||-------------------------|-------------------------|
C#||--------------9-11--9-11-|-------------------------|
G#||-12-12----12-------------|--9----9---9--9----------|
C#||-------------------------|-------------------------|
      1  &  2  &  3  &  4  &    1  &  2  &  3  &  4  &
Tap to rate this tab
# A B C D E F G H I J K L M N O P Q R S T U V W X Y Z