Song name
# A B C D E F G H I J K L M N O P Q R S T U V W X Y Z

Paramore - Hello Cold World chords

Highlighted       Show chord diagrams
Paramore
Hello Cold World
Submitted by: paramore_fans@yahoo.com

Key: Eb

Tuning: Standard EADGBe

Chords used:
Eb     x68886
Cm     x35543
Bb     x13331
G#     466544
Eb/G   365xxx


Intro: Eb  Cm Bb G#  Cm Bb  x2


Verse 1:
Eb
  I feel happy I feel sad
I feel like running
through the walls
I'm overjoyed I'm undecided
I don't know who I am
Cm
  Well maybe I'm not perfect
G#
  at least I'm working on it
Eb
  22 is like the worst
idea that I have ever had
It's too much pain it's too much
                              Cm
freedom what should I do with this?
It's not the way you plan it
G#
  it's how you make it happen
Eb/G    G#
    Yeah  it's how you
              Eb/G Bb
make it happen


Chorus 1:
            Eb               Bb
It's such a cold cold world (hello
                  G#
cold world) and I can't get out
   Eb                 Eb/G
So I'll just make the best of
                G#
everything I'll never have
       Cm
Such a cold cold world
 Bb
(hello cold world) and
     Eb         G#
it's got me down
    Cm
But I'll get right
     Bb
back up as long as
    G#
it spins around
Hello cold world


Post Chorus: Eb  Cm Bb G#  Cm Bb 


Verse 2:
Eb
  Girls and boys keep lining up
to see if they can measure up
They look good and they feel wild
but it won't never be enough
Cm
  You say you're really hurting
G#
  at least you're feeling something
Eb
  We can hope and we can pray that
everything would work out fine
You can't just stay out on your
                           Cm
knees the revolution is outside
You wanna make a difference
G#
  get out and go and get it
Eb/G     G#                         Eb/G G#
    Whoah  get out and go and get it


(Repeat Chorus 1)


Bass Solo: Eb   x2


Bridge:
G# Cm              Bb
     Don't need my eyes open
G# Cm
Oh   I I just want
   Bb
to feel something


Guitar Solo: Eb Bb Cm Eb G#  Eb Bb Cm Eb/G G#  


Guitar 2: Solo Thing exactly done by Taylor York
e|--------10-11-8----8--------------|
B|---8-11---------11---8--11--8--11-|
G|-8--------------------------------|
D|----------------------------------|
A|----------------------------------|
E|----------------------------------|

e|--------10-11-8----8-------------|
B|---8-11---------11---8--11--8----|
G|-8-----------------------------8-|
D|---------------------------------|
A|---------------------------------|
E|---------------------------------|

e|--------10-11-8----8--------------|
B|---8-11---------11---8--11--8--11-|
G|-8--------------------------------|
D|----------------------------------|
A|----------------------------------|
E|----------------------------------|

e|-------------------8-11-|
B|------------8-9-11------|
G|-5--7--8-10-------------|
D|------------------------|
A|------------------------|
E|------------------------|


Chorus 1:
            Eb               Bb
It's such a cold cold world (hello
                  G#
cold world) and I can't get out
   Eb                 Eb/G
So I'll just make the best of
                G#
everything I'll never have
       Cm
Such a cold cold world
 Bb
(hello cold world) and
     Eb         G#
it's got me down
    Cm
But I'll get right
     Bb
back up as long as
    G#
it spins around
spins around


Outro:
Eb       Cm Bb
Oh whoah oh oh
G#
Oh whoah oh oh
Cm    Bb
hello cold world
Eb       Cm Bb
Oh whoah oh oh
G#
Oh whoah oh oh
Cm    Bb        Eb(hold)
hello cold world
Tap to rate this tab
 
# A B C D E F G H I J K L M N O P Q R S T U V W X Y Z