Song name
# A B C D E F G H I J K L M N O P Q R S T U V W X Y Z

Paramore - Hello Cold World chords

Highlighted       Show chord diagrams
Paramore your the best!!!!!!...I hope guize it will help you a lot!!^^
just add palm mute in verses,,,,,EnjoY!!! 


Keys:
/=SLIDE
h=hammer


[power chords]
    Eb  Bb  Ab  Cm  F#
e|----------------------|
B|----------------------|
G|--8-----------5-------|
D|--8---8---6---5---4---|
A|--6---8---6---3---4---|
E|------6---4-------2---|



[intro]  do this (2x)
    Eb	   Cm    Bb    Ab     Cm    Bb    
e|-------------------------------------------------|
B|----8/11-8---6-8-6-8----8/11-8--6----------------|
G|--8------------------8------------8-7-8----------|
D|-------------------------------------------------|
A|-------------------------------------------------|
E|-------------------------------------------------|



[Verse 1]

Eb
I feel happy I feel sad I feel like running through the walls,
I'm over joyed I'm undecided, I don't know who I am,

Cm				Bb
   And maybe I'm not perfect, atleast I'm workin on it,

Eb
22 was like the worst idea that I've ever had
it's too much pain, it's too much freedom
What should I do with this

Cm			      Ab
 it's not the way you plan it it's how you make it happen,

Eb                        Ab       Eb    Bb
yeah it's how you make it happen




[Chorus 1]
Eb		        Bb        Ab
It's such a cold cold world and I can't get out

Cm			Bb			 Ab
so I'll just make the best of everything I've ever had

  Cm		    Bb
such a cold cold world

	 Eb            Ab
and it's got me down,

Cm                Bb                   Ab
But i'll get right back as long as it spins around
hello cold world


[repeat intro once]



[verse 2]
Eb
Girls and boys keep lining up to see if they can measure up
They look good and they feel wow but it will never be enough,

Bb				Ab	
 You say you're really hurtin, atleast you're feelin somethin,

Eb
we can hope and we can pray that everything will work out fine,
you can't just stay down on your knees,
the revolution is outside,

Bb				Ab
you wanna make a difference, get out and go and get it

Cm                       Ab       Eb    Bb
woah get out and go and get it


[Chorus 2]
Eb		        Bb        Ab
It's such a cold cold world and I can't get out

Cm			Bb			 Ab
so I'll just make the best of everything I've ever had

  Cm		    Bb
such a cold cold world

	 Eb            Ab
and it's got me down,

Cm                Bb                   Ab
But i'll get right back as long as it spins around

			Eb..............
hello cold world


Ab
oh oh woah woah ohhh

    Cm              Bb
ohhh don't need my eyes open,

Ab
oh oh woah woah ohh

   Cm              Bb
ohhh I just wanna feel something


[solo]
    Ab	 Bb	Cm	Eb	Ab
e|-----------8--11-10-----8-----6---6-------|
B|----8/11-------------11----8----8---------|
G|--8---------------------------------------|
D|------------------------------------------|
A|------------------------------------------|
E|------------------------------------------|

    Ab	
e|-----------8--11-10-----8-----6-----------|
B|----8/11-------------11----8----8---------|
G|--8-------------------------------8-------|
D|------------------------------------------|
A|------------------------------------------|
E|------------------------------------------|

    Ab	 Bb	Cm	      F#
e|-----------8--11-10-----8-----6---6-------|
B|----8/11-------------11----8----8---------|
G|--8---------------------------------------|
D|------------------------------------------|
A|------------------------------------------|
E|------------------------------------------|

   Ab
e|--------------------------------8--11-----|
B|-------------------------8-9-11-----------|
G|--5-5-5-5--7-7-7-7--8h10------------------|
D|------------------------------------------|
A|------------------------------------------|
E|------------------------------------------|

[Chorus 3]
Eb		        Bb        Ab
It's such a cold cold world and I can't get out

Cm			Bb			 Ab
so I'll just make the best of everything I've ever had

  Cm		    Bb
such a cold cold world

	 Eb            Ab
and it's got me down,

Cm                Bb                   Ab
But i'll get right back as long as it spins around
hello cold world




Eb           Cm
oh oh woah woah ohh

Bb           Ab
oh hello cold world

Eb           Cm
oh oh woah woah ohh

Bb           Ab
oh hell cold world
Tap to rate this tab
# A B C D E F G H I J K L M N O P Q R S T U V W X Y Z