Song name
# A B C D E F G H I J K L M N O P Q R S T U V W X Y Z

Paramore - Renegade tab

-------------------------------------------------------------------------------
			     Renegade - Paramore
-------------------------------------------------------------------------------
Tabbed by: skryde87
Email: markus.gunzelmann@googlemail.com

Tuning: Drop C#




---{ Intro ]---



Rhythm Guitar

Eb|---------------------------------|
Bb|---------------------------------|
Gb|-4-4-4-9-9-7-7-7-7-7-7-7-7-7-7-7-| 2x
Db|-x-x-x-x-x-x-x-x-x-x-x-x-x-x-x-x-|
Ab|-2-2-2-7-7-5-5-5-5-5-5-5-5-5-5-5-|
Db|---------------------------------|

Eb|-----------------------------------------------------------------|
Bb|-----------------------------------------------------------------|
Gb|-----------------------------------------------------------------|
Db|-5-5-5-5-5-5-5-5-5-5-5-5-5-5-5-5-7-7-7-7-7-7-7-7-7-7-7-7-7-7-7-7-|
Ab|-5-5-5-5-5-5-5-5-5-5-5-5-5-5-5-5-7-7-7-7-7-7-7-7-7-7-7-7-7-7-7-7-|
Db|-5-5-5-5-5-5-5-5-5-5-5-5-5-5-5-5-7-7-7-7-7-7-7-7-7-7-7-7-7-7-7-7-|



Lead Guitar

Eb|---------------------------------|
Bb|---------------------------------|
Gb|-4-4-4-9-9-7-7-7-7-7-7-7-7-7-7-7-| 2x
Db|-x-x-x-x-x-x-x-x-x-x-x-x-x-x-x-x-|
Ab|-2-2-2-7-7-5-5-5-5-5-5-5-5-5-5-5-|
Db|---------------------------------|

Eb|---------------------------------------------------------------------------|
Bb|---------------------------------------------------------------------------|
Gb|-7-7-7-7-7-7-7-7-9-9-9-9-9-9-9-9-6-6-6-7-7-7-14-14-14-14-14-14-14-14-14-14-|
Db|-x-x-x-x-x-x-x-x-x-x-x-x-x-x-x-x-x-x-x-x-x-x-x--x--x--x--x--x--x--x--x--x--|
Ab|-5-5-5-5-5-5-5-5-7-7-7-7-7-7-7-7-4-4-4-5-5-5-12-12-12-12-12-12-12-12-12-12-|
Db|---------------------------------------------------------------------------|




---[ Verse 1 ]---



Rhythm Guitar

Eb|---------------------------------|
Bb|---------------------------------|
Gb|-4-4-4-9-9-7-7-7-7-7-7-7-7-7-7-7-| 2x
Db|-4-4-4-9-9-7-7-7-7-7-7-7-7-7-7-7-|
Ab|-2-2-2-7-7-5-5-5-5-5-5-5-5-5-5-5-|                                
Db|---------------------------------|                                 
    . . . . . . . . . . . . . . . .                                   
                                                                         
Eb|-----------------------------------------------------------------|  
Bb|-----------------------------------------------------------------| 
Gb|-----------------------------------------------------------------| whole part 2x
Db|-5-5-5-5-5-5-5-5-5-5-5-5-5-5-5-5-7-7-7-7-7-7-7-7-7-7-7-7-7-7-7-7-|
Ab|-5-5-5-5-5-5-5-5-5-5-5-5-5-5-5-5-7-7-7-7-7-7-7-7-7-7-7-7-7-7-7-7-|
Db|-5-5-5-5-5-5-5-5-5-5-5-5-5-5-5-5-7-7-7-7-7-7-7-7-7-7-7-7-7-7-7-7-|
    . . . . . . . . . . . . . . . . . . . . . . . . . . . . . . . . 



Lead Guitar (2nd part of the verse)

Eb|-------------------------------------------------------------------|
Bb|---------------------------------------10-10-7-7-7-7-7-7-7-7-7-7-7-|
Gb|-------9-9-7-7-7-7-7-7-7-7-7-7-7-----------------------------------|
Db|-9-9-9---------------------------9-9-9-----------------------------|
Ab|-------------------------------------------------------------------|
Db|-------------------------------------------------------------------|
    . . . . . . . . . . . . . . . . . . . . . . . . . . . . . . . . .

Eb|-------------------------------------------------------------------|
Bb|-------------------------------------------------------------------|
Gb|-----------------6-6-6-6-7-7-7-7-9-9-9-9-9-9-9-9-9-9-9-9-----------|
Db|-9-9-9-9-9-9-9-9---------------------------------------------------|
Ab|-------------------------------------------------------------------|
Db|-------------------------------------------------------------------|
    . . . . . . . . . . . . . . . . . . . . . . . . . . . . 



---[ Chorus ]---



Rhythm Guitar

Eb|-----------------------------------------------------------------|
Bb|-----------------------------------------------------------------|
Gb|-----------------------------------------------------------------|
Db|-9-9-9-9-9-9-0-0-0-0-0-0-0-0-0-0-5-5-5-5-5-5-5-5-5-5-5-5-5-5-5-5-| 
Ab|-9-9-9-9-9-9-0-0-0-0-0-0-0-0-0-0-5-5-5-5-5-5-5-5-5-5-5-5-5-5-5-5-| 
Db|-9-9-9-9-9-9-0-0-0-0-0-0-0-0-0-0-5-5-5-5-5-5-5-5-5-5-5-5-5-5-5-5-|  
 
Eb|-----------------------------------------------------------------|           |---------|
Bb|-----------------------------------------------------------------|           |---------|
Gb|-----------------------------------------------------------------| 2x, then  |---------|
Db|-9-9-9-9-9-9-7-7-7-7-0-0-0-0-0-0-5-5-5-5-5-5-5-5-5-5-5-5-5-5-5-5-|           |---7-7-7-|
Ab|-9-9-9-9-9-9-7-7-7-7-0-0-0-0-0-0-5-5-5-5-5-5-5-5-5-5-5-5-5-5-5-5-|           |---7-7-7-|
Db|-9-9-9-9-9-9-7-7-7-7-0-0-0-0-0-0-5-5-5-5-5-5-5-5-5-5-5-5-5-5-5-5-|           |---7-7-7-|



Lead Guitar

Eb|------------------------10---9---7-------------------------------|
Bb|-------7---10---7-----------------------10-------7---------------|
Gb|-7---9-----------------------------------------------------------|
Db|-----------------------------------------------------------------|
Ab|-----------------------------------------------------------------|
Db|-----------------------------------------------------------------|

Eb|-----------------------------------------------------------------|           |----------|
Bb|---------------------7-------------------------------------------|           |---101010-|
Gb|-7---7-7-7-7-9---------------------------------------------------| 2x, then  |---x-x-x--|
Db|---------------------------------9-9-9-9-9-9-9-9-9-9-9-9-9-9-9-9-|           |---7-7-7--|
Ab|-----------------------------------------------------------------|           |----------|
Db|-----------------------------------------------------------------|           |----------|




---[ Short Intro ]---



Both Guitars

Eb|---------------------------------|
Bb|---------------------------------|
Gb|-4-4-4-9-9-7-7-7-7-7-7-7-7-7-7-7-| 2x
Db|-x-x-x-x-x-x-x-x-x-x-x-x-x-x-x-x-|
Ab|-2-2-2-7-7-5-5-5-5-5-5-5-5-5-5-5-|
Db|---------------------------------|




---[ Verse 2 ]---



Rhythm Guitar

Eb|---------------------------------|
Bb|---------------------------------|
Gb|-4-4-4-9-9-7-7-7-7-7-7-7-7-7-7-7-| 2x
Db|-4-4-4-9-9-7-7-7-7-7-7-7-7-7-7-7-|
Ab|-2-2-2-7-7-5-5-5-5-5-5-5-5-5-5-5-|                                
Db|---------------------------------|                                 
    . . . . . . . . . . . . . . . .                                   
                                                                         
Eb|-----------------------------------------------------------------|  
Bb|-----------------------------------------------------------------| 
Gb|-----------------------------------------------------------------| whole part 2x
Db|-5-5-5-5-5-5-5-5-5-5-5-5-5-5-5-5-7-7-7-7-7-7-7-7-7-7-7-7---------|
Ab|-5-5-5-5-5-5-5-5-5-5-5-5-5-5-5-5-7-7-7-7-7-7-7-7-7-7-7-7---------|
Db|-5-5-5-5-5-5-5-5-5-5-5-5-5-5-5-5-7-7-7-7-7-7-7-7-7-7-7-7---------|
    . . . . . . . . . . . . . . . . . . . . . . . . .  



Lead Guitar

Eb|-------------------------------------------------------------------|
Bb|---------------------------------------10-10-7-7-7-7-7-7-7-7-7-7-7-|
Gb|-------9-9-7-7-7-7-7-7-7-7-7-7-7-----------------------------------|
Db|-9-9-9---------------------------9-9-9-----------------------------|
Ab|-------------------------------------------------------------------|
Db|-------------------------------------------------------------------|
    . . . . . . . . . . . . . . . . . . . . . . . . . . . . . . . . .

Eb|-------------------------------------------------------------------|
Bb|-------------------------------------------------------------------|
Gb|-----------------6-6-6-6-7-7-7-7-----------------------------------|
Db|-9-9-9-9-9-9-9-9-----------------9-9-9-9-9-9-9-9-9-9-9-9-9-9-9-9---|
Ab|-------------------------------------------------------------------|
Db|-------------------------------------------------------------------|
    . . . . . . . . . . . . . . . . . . . . . . . . . . . . . . . .

Eb|-----5-----5-----5-----5-----5---|
Bb|---5---5-----5-----7-----7-----7-|
Gb|-7-------7-----7-----7-----7-----| 4x
Db|---------------------------------|
Ab|---------------------------------|
Db|---------------------------------|




---[ Pre-Chorus ]---



Lead Guitar

Eb|-----5-------5-------5-------5-------5-------5-------5-------5---|
Bb|---5---5---5---5---5---5---5---5---5---5---5---5---5---5---5---5-|
Gb|-7-------7-------7-------7-------7-------7-------7-------7-------|
Db|-----------------------------------------------------------------|
Ab|-----------------------------------------------------------------|
Db|-----------------------------------------------------------------|

Eb|-----5-------5-------5-------5-------5-------5-------5-------5---|
Bb|---5---5---5---5---5---5---5---5---5---5---5---5---5---5---5---5-|
Gb|-7-------7-------7-------7-------6-------6-------6-------6-------|
Db|-----------------------------------------------------------------|
Ab|-----------------------------------------------------------------|
Db|-----------------------------------------------------------------|



--- Chorus ---




---[ Bridge ]---



Rhythm Guitar

Eb|-----------------------------------------------------------------|
Bb|---------------------------------7-------7-------10------10------|
Gb|-7-------7-------9-------9---------------------------------------|
Db|-----------------------------------------------------------------|
Ab|-----------------------------------------------------------------|
Db|-----------------------------------------------------------------|

Eb|-----------------------------------------------------------------|
Bb|---------------------------------7-------7-------7---------------|
Gb|-7-------7-------6-------6---------------------------------------|
Db|-----------------------------------------------------------------|
Ab|-----------------------------------------------------------------|
Db|-----------------------------------------------------------------|



Lead Guitar

Eb|-----5-------5-------5-------5-------5-------5-------5-------5---|
Bb|---5---5---5---5---5---5---5---5---5---5---5---5---5---5---5---5-|
Gb|-7-------7-------7-------7-------7-------7-------7-------7-------| 2x
Db|-----------------------------------------------------------------|
Ab|-----------------------------------------------------------------|
Db|-----------------------------------------------------------------|




--- Intro ---




---[ Intro 2 ]--- 



Rhythm Guitar

Eb|---------------------------------|
Bb|---------------------------------|
Gb|-4-4-4-9-9-7-7-7-7-7-7-7-7-7-7-7-| 2x
Db|-x-x-x-x-x-x-x-x-x-x-x-x-x-x-x-x-|
Ab|-2-2-2-7-7-5-5-5-5-5-5-5-5-5-5-5-|
Db|---------------------------------|

Eb|-----------------------------------------------------------------x------------|
Bb|-----------------------------------------------------------------x------------|
Gb|-----------------------------------------------------------------x------------|
Db|-5-5-5-5-5-5-5-5-5-5-5-5-5-5-5-5-7-7-7-7-7-7-7-7-7-7-7-7-7-7-7-7-x------7-7-7-|
Ab|-5-5-5-5-5-5-5-5-5-5-5-5-5-5-5-5-7-7-7-7-7-7-7-7-7-7-7-7-7-7-7-7-x------7-7-7-|
Db|-5-5-5-5-5-5-5-5-5-5-5-5-5-5-5-5-7-7-7-7-7-7-7-7-7-7-7-7-7-7-7-7-x------7-7-7-|



Lead Guitar

Eb|---------------------------------|
Bb|---------------------------------|
Gb|-4-4-4-9-9-7-7-7-7-7-7-7-7-7-7-7-| 2x
Db|-x-x-x-x-x-x-x-x-x-x-x-x-x-x-x-x-|
Ab|-2-2-2-7-7-5-5-5-5-5-5-5-5-5-5-5-|
Db|---------------------------------|

Eb|---------------------------------------------------------------------------x---------------|
Bb|---------------------------------------------------------------------------x---------------|
Gb|-7-7-7-7-7-7-7-7-9-9-9-9-9-9-9-9-6-6-6-7-7-7-18-18-18-18-18-18-18-18-18-18-x------18-18-18-|
Db|-x-x-x-x-x-x-x-x-x-x-x-x-x-x-x-x-x-x-x-x-x-x-x--x--x--x--x--x--x--x--x--x--x------x--x--x--|
Ab|-5-5-5-5-5-5-5-5-7-7-7-7-7-7-7-7-4-4-4-5-5-5-16-16-16-16-16-16-16-16-16-16-x------16-16-16-|
Db|---------------------------------------------------------------------------x---------------|




--- Chorus ---




Enjoy!

************************************

| /   slide up
| \   slide down
| h   hammer-on
| p   pull-off
| ~   vibrato
| +   harmonic
| x   Mute note
| b   Bend
| pb  Pre-bend
| br  Bend release
| pbr Pre-bend release
| brb Bend release bend

************************************
Tap to rate this tab
# A B C D E F G H I J K L M N O P Q R S T U V W X Y Z