Song name
# A B C D E F G H I J K L M N O P Q R S T U V W X Y Z

Paramore - Stop This Song Acoustic tab

This is just how me and my friend play it. Sorry if it's hard to understand. 

Intro: 

Guitar 1
Eb|-----------------|
Bb|-----------------|
Gb|--6--------1-----|
Db|--6--7--6--2--2x-|
Ab|--4--7--6--2-----|
Eb|-----5--4--0-----|

Guitar 2
Eb|---------------------------------|---7------|
Bb|---------------------------------|--7-9-----|
Gb|--9989-----11986----9989------11-|----------|
Db|-------4x-----------------4x-----|----------|
Ab|--7767-----9-764----7767------9--|----------|
Eb|---------------------------------|----------|

Verse:

Guitar 1 Palm mutted...
Eb|----------------------------------|
Bb|----------------------------------|
Gb|----------------------------------|
Db|-6-------(2)----------------------|
Ab|-4--7--6--2-----4x----------------|
Eb|----5--4--0-----------------------|

Guitar 2
This is played kind of at random times, so just listen to the song to figure it out.

Eb|---4-------|
Bb|----5------|
Gb|-----6-----| 4x
Db|------6----|
Ab|-------4---|
Eb|-----------|

Pre Chorus: 
Eb|--4----0----4----0---0------------|
Bb|--5----0----5----0---0------------|
Gb|--6----2----6----1---4------------|
Db|--6----2----6----2---4------------|
Ab|--4----0----4----2---2------------|
Eb|-----------------0----------------|

Chorus:

Guitar 1
Eb|-----------------|
Bb|-----------------|
Gb|--6--------1-----|
Db|--6--7--6--2--2x-|
Ab|--4--7--6--2-----|
Eb|-----5--4--0-----|

Guitar 2
Eb|---------------------------------|---7------|
Bb|---------------------------------|--7-9-----|
Gb|--9989-----11986----9989------11-|----------|
Db|-------4x-----------------4x-----|----------|
Ab|--7767-----9-764----7767------9--|----------|
Eb|---------------------------------|----------|


Verse:

Guitar 1 Palm mutted...
Eb|----------------------------------|
Bb|----------------------------------|
Gb|----------------------------------|
Db|-6-------(2)----------------------|
Ab|-4--7--6--2-----4x----------------|
Eb|----5--4--0-----------------------|

Guitar 2
Eb|---4-------|
Bb|----5------|
Gb|-----6-----| 4x
Db|------6----|
Ab|-------4---|
Eb|-----------|

Pre Chorus: 
Eb|--0---4---0--0--0---0---0-----0-----|
Bb|--0---5---0--0--0---0---0-----0-----|
Gb|--2---6---1--4--2---1---2--2--1-----|
Db|--2---6---2--4--2---2---2--4--2-----|
Ab|--0---4---2--2--0---2---0--4--2-----|
Eb|----------0---------0-4----2--0-----|

Chorus:

Guitar1
Eb|-----------------|
Bb|-----------------|
Gb|--6--------1-----| 4x
Db|--6--7--6--2-----|
Ab|--4--7--6--2-----|
Eb|-----5--4--0-----|

Guitar 2
Eb|---------------------------------|
Bb|---------------------------------|
Gb|--9989-----11986----9989------11-|
Db|-------4x-----------------4x-----|
Ab|--7767-----9-764----7767------9--|
Eb|---------------------------------|

Pre-bridge:
Eb|----------------------------------|
Bb|----------------------------------|
Gb|-16161616-13131313-111111-9999----|
Db|-x-x-x-x--x-x-x-x--x-x-x--xxxx----|
Ab|-14141414-11111111-9-9-9--7777----|
Eb|----------------------------------|

Bridge:
Eb|----------------------4-----------|
Bb|----------------------5-----------|
Gb|------6---1---4-------6-----------|
Db|--7---6---2---4---2x--6-----------|
Ab|--7---4---2---2-------4-----------|
Eb|--5-------0-----------------------|

Eb|----------------------------------------------------------|
Bb|----------------------------------------------------------|
Gb|-6666--8888--9999--11111111-13131313-14141414-16161616----|
Db|-xxxx--xxxx--xxxx--x-x-x-x--x-x-x-x--x-x-x-x--x-x-x-x-----|
Ab|-4444--6666--7777--9-9-9-9--11111111-12121212-14141414----|
Eb|----------------------------------------------------------|

Chorus:

Guitar1
Eb|-----------------|
Bb|-----------------|
Gb|--6--------1-----| 4x
Db|--6--7--6--2-----|
Ab|--4--7--6--2-----|
Eb|-----5--4--0-----|

Guitar 2
Eb|---------------------------------|
Bb|---------------------------------|
Gb|--9989-----11986----9989------11-|
Db|-------4x-----------------4x-----|
Ab|--7767-----9-764----7767------9--|
Eb|---------------------------------|

Outro:

Guitar 2, again it just plays at random times.
Eb|---4-------|
Bb|----5------|
Gb|-----6-----| 2x
Db|------6----|
Ab|-------4---|
Eb|-----------|
Tap to rate this tab
# A B C D E F G H I J K L M N O P Q R S T U V W X Y Z