Song name
# A B C D E F G H I J K L M N O P Q R S T U V W X Y Z

Paramore - When It Rains Acoustic tab

This is my acoustic version of When it Rains by Paramore.

Intro

    (Delay)                 
|--4--------4-------|--0-0-0-0-0-0-0-0-0-0-0-0-0-0-0-0-0-0-0-0-0-0-0-0--|
|--5--------5-------|--0-0-0-0-0-0-0-0-0-0-0-0-0-0-0-0-0-0-0-0-0-0-0-0--|
|--6--------6-------|--2-2-2-2-2-2-2-2-6-6-6-6-9-9-9-9-2-2-2-2-2-2-2-2--|
|-------------------|--2-2-2-2-2-2-2-2-6-6-6-6-9-9-9-9-2-2-2-2-2-2-2-2--|
|-------------------|--0-0-0-0-0-0-0-0-4-4-4-4-7-7-7-7-0-0-0-0-0-0-0-0--|
|-------------------|---------------------------------------------------|

|--0-0-0-0-0-0-0-0--|     |--0--|
|--0-0-0-0-0-0-0-0--|     |--0--|
|--4-4-4-4-6-6-6-6--| X2  |--1--|
|--4-4-4-4-6-6-6-6--|     |--2--|
|--2-2-2-2-4-4-4-4--|     |--2--|
|-------------------|     |--0--|

Verse (I usually strum these chords)

|--0--------0----0--|
|--0--------0----0--|
|--6--------2----1--| X2
|--6--------2----2--|
|--4--------0----2--|
|----------------0--|

Pre-Chorus (Again strum or pick these chords)

|--0--------0--|      |--0-0-0-0-0-0-0-0--|
|--0--------0--|      |--0-0-0-0-0-0-0-0--|
|--2--------1--|  X2  |--4-4-4-4-4-4-4-4--|
|--2--------2--|      |--4-4-4-4-4-4-4-4--|
|--x--------2--|      |--2-2-2-2-2-2-2-2--|
|--2--------0--|      |-------------------|

Chorus

|--0-0-0-0-0-0-0-0-0-0-0-0-0-0-0-0-0-0-0-0-0-0-0-0-0-0-0-0-0-0-0-0--|
|--0-0-0-0-0-0-0-0-0-0-0-0-0-0-0-0-0-0-0-0-0-0-0-0-0-0-0-0-0-0-0-0--|
|--2-2-2-2-2-2-2-2-6-6-6-6-1-1-1-1-2-2-2-2-2-2-2-2-4-4-4-4-6-6-6-6--|  X2
|--2-2-2-2-2-2-2-2-6-6-6-6-2-2-2-2-2-2-2-2-2-2-2-2-4-4-4-4-6-6-6-6--|
|--0-0-0-0-0-0-0-0-4-4-4-4-2-2-2-2-0-0-0-0-0-0-0-0-2-2-2-2-4-4-4-4--|
|--------------------------0-0-0-0----------------------------------|

Bridge (I haven't figured out the last three chords of the bridge just yet)

|--0----0----0--|      |--0----0----0--|
|--0----0----0--|      |--0----0----0--|
|--6----4----2--|  X2  |--2----4----2--|  X2 
|--6----4----2--|      |--2----4----2--|
|--4----2----0--|      |--x----2----0--|
|---------------|      |--2------------|



This is what I have so far. I will finish this tab soon. Enjoy!
Tap to rate this tab
 
# A B C D E F G H I J K L M N O P Q R S T U V W X Y Z