Song name
# A B C D E F G H I J K L M N O P Q R S T U V W X Y Z

Paramore - Let The Flames Begin Live tab

Ok, so for this song was harder to me to tab it cause i'm not really good on it. This is 
just Josh's part cause it was easier to me than Taylor's part, it took me a long time 
but i finally tabbed it.
TUNNING Drop D#

All this is just for the lead guitar.


-Intro

Eb|--------------------8-(8x)--10-(8x)-|
Bb|-8-(32x)--11-(16x)------------------|
Gb|------------------------------------|
Db|------------------------------------|
Ab|------------------------------------|
Db|------------------------------------|


Eb|--------------------8-(7x)--10-(9x)-|
Bb|-8-(32x)--11-(16x)------------------|
Gb|------------------------------------| 3x
Db|------------------------------------|
Ab|------------------------------------|
Db|------------------------------------|



-Verse 1, all this twice and then the Pre-chorus 1

Eb|-----------------------------------------------------------------|
Bb|-----------------------------------------------------------------|
Gb|--------7-------7-------7-------------10-------10-------10-------|
Db|---5--------5-------5-------5--------------8--------8--------8---|
Ab|-----------------------------------------------------------------|
Db|-5---5--------5-------5-------5-/-8----------8--------8--------8-|


Eb|-----------------------------------------------------------------|
Bb|-----1-------3--3--1--1-----------10--10--11--11--10--10---------|
Gb|---------1-------------------------------------------------------|
Db|-----------1-----------------------------------------------------|
Ab|-----------------------------------------------------------------|
Db|-1-----------------------1-/-10----------------------------------|



-Pre-Chorus 1

Eb|-----------------------------------------------------------------|
Bb|-----------------------------------------------------------------|
Gb|-----------------------------------------------------------------|
Db|-1-1-1-1-1-1-1-1-1-1-1-1-1-1-1-1-3-3-3-3-3-3-3-3-3---------------|
Ab|-1-1-1-1-1-1-1-1-1-1-1-1-1-1-1-1-3-3-3-3-3-3-3-3-3---------------|
Db|-1-1-1-1-1-1-1-1-1-1-1-1-1-1-1-1-3-3-3-3-3-3-3-3-3---------------|



-Chorus

Eb|---------------------------------------|      |------------------|
Bb|-----------------------------------10b-|      |-----10-------11~-|
Gb|-7--8--7-------------10-----10---------| 3x   |-10-------10~-----|
Db|----------10--8--10------8-------------|      |------------------|
Ab|---------------------------------------|      |------------------|
Db|---------------------------------------|      |------------------|



-Verse 2

Eb|-10------10------10------10------10----------8-------8-------8-------8-------8----------|
Bb|----8-------8-------8-------8-------8-----8-----8-------8-------8-------8-------8----8--|
Gb|------10------10------10------10------10----------10------10------10------10------10----|
Db|----------------------------------------------------------------------------------------|
Ab|----------------------------------------------------------------------------------------|
Db|----------------------------------------------------------------------------------------|

Eb|-10------10------10------10------10----------8-------8-------8-------8~----------------|
Bb|----8-------8-------8-------8-------8-----8-----8-------8-------8----------------------|
Gb|------10------10------10------10------10----------10------10------10-------------------|
Db|---------------------------------------------------------------------------------------|
Ab|---------------------------------------------------------------------------------------|
Db|---------------------------------------------------------------------------------------|

Eb|-----6----------------------------------------6----------------------------------------|
Bb|---------------6----------------------------------------6-------------8----------------|
Gb|-5/7---------------------7---5------------5/7---------------------7--------------------|
Db|---------------------------------------------------------------------------------------|
Ab|---------------------------------------------------------------------------------------|
Db|---------------------------------------------------------------------------------------|



-Pre-Chorus 2

Eb|------------------------------------------------------------------------------------------------|
Bb|------------------------------------------------------------------------------------------------|
Gb|10-10-10--8--8--8--7--7--7-----------------------10-10-10----------------------------10-10-10-10|
Db|----------------------------10-10-10-10-10-10-10----------10-10-10-7--7--7--8--8--8-------------|
Ab|------------------------------------------------------------------------------------------------|
Db|------------------------------------------------------------------------------------------------|

Eb|------------------------------------------------------------------------------------------------|
Bb|------------------------------------------------------------------------------------------------|
Gb|10-10-10--8--8--8--7--7--7-----------------------10-10-10----------------------------10~--------|
Db|----------------------------10-10-10-10-10-10-10----------10-10-10-7~-------8~------------------|
Ab|------------------------------------------------------------------------------------------------|
Db|------------------------------------------------------------------------------------------------|



-After this you play the chorus twice and then the bridge..


-Bridge, for this part i think Josh uses delay..not sure

Eb|-10-------------------------------|      |-------------------------|
Bb|----8-----------------------------|      |-------------------------|
Gb|------10---10---------------------| 3x   |-------------------------| 4x
Db|--------------8----8--7-----------|      |-7-----8----10~----------|
Ab|--------------------------10-10---|      |-------------------------|
Db|----------------------------------|      |-------------------------|



-Do the Chorus and then do the Bridge 1 part again..four times, the the 2nd Bridge..


-Bridge 2

Eb|-10------10------10------10------10--------10------10------10------10------10---------|
Bb|----8-------8-------8-------8-------8----8----8-------8-------8-------8-------8----8--|
Gb|------10------10------10------10------10--------10------10------10------10------10----|
Db|--------------------------------------------------------------------------------------|
Ab|--------------------------------------------------------------------------------------|
Db|--------------------------------------------------------------------------------------|



Eb|-10------10------10------10------10-----------------------------------------------|
Bb|----8-------8-------8-------8-------8----8-11------11------10------8------8-------|
Gb|------10------10------10------10------10--------10------10------10-----10-----10--|
Db|----------------------------------------------------------------------------------|
Ab|----------------------------------------------------------------------------------|
Db|----------------------------------------------------------------------------------|



-For the Oh father part is..(99.9% sure)

Eb|-------------------------------------------|
Bb|-11------11------10------8------8----------|
Gb|------10------10------10-----10-----10-----| (11x)
Db|-------------------------------------------|
Ab|-------------------------------------------|
Db|-------------------------------------------|


Eb|-13-13-13-13-13-13-13-13-15-15-15-15-15-15-15-15-15\-----|
Bb|---------------------------------------------------------|
Gb|---------------------------------------------------------|
Db|---------------------------------------------------------|
Ab|---------------------------------------------------------|
Db|---------------------------------------------------------|

Any questions, corrections or anything, e-mail me at sam_parawhore@hotmail.com
I really hope this helps, see ya :)
Tap to rate this tab
# A B C D E F G H I J K L M N O P Q R S T U V W X Y Z