Song name
# A B C D E F G H I J K L M N O P Q R S T U V W X Y Z

Paramore - Miracle tab

-------------------------------------------------------------------------------
                             Miracle - Paramore
-------------------------------------------------------------------------------
Tabbed by: MusicMan24
E-mail: a7t1r1@hotmail.com


Pretty darn sure this is 100% correct.



Tuning: Both Gtrs. - Drop D Flat (Db Ab Db Gb Bb eb)




Intro


Gtr. 1

eb|-------------------------------------------------------8-5---------|
Bb|-------666--------888--------6666666-5555/10-----------------5h6p5-|
Gb|---------------------------------------------5-7-7-7-7-----5-------|
Db|777-88-----777-88-----777-88---------------------------------------| x2
Ab|-------------------------------------------------------------------|
Db|-------------------------------------------------------------------|

eb|------|
Bb|------|
Gb|------|
Db|-8~---|
Ab|-8~---|
Db|-8~---|


Gtr. 2

eb|--------------------------------------------------------|
Bb|--------------------------------------------------------|
Gb|7-777777----------7-777777-5-555555---------------------|
Db|7-777777-8-888888-7-777777-5-555555-8-888888-3333-5555--|
Ab|5-555555-8-888888-5-555555-3-333333-8-888888-3333-5555--|
Db|---------8-888888-------------------8-888888-3333-5555--|

eb|-----------------------------------------------------------|
Bb|-----------------------------------------------------------|
Gb|7-777777----------7-777777-5-555555------------------------|
Db|7-777777-8-888888-7-777777-5-555555-8-888888-3--3-55--8~---|
Ab|5-555555-8-888888-5-555555-3-333333-8-888888-3--3-55--8~---|
Db|---------8-888888-------------------8-888888-3--3-55--8~---|



Verse 1


Gtr. 1

eb|--------------------------------------------|
Bb|10----10----8----8---10---10----8----8\6----|
Gb|x-----x-----x----x----x----x----x----x\x----|
Db|7-----7-----5----5----7----7----5----5\3----| x3
Ab|--------------------------------------------|
Db|--------------------------------------------|


4th time

eb|----------------------------------------|
Bb|10----10----8----8---10---10------------|
Gb|x-----x-----x----x----x----x------------|
Db|7-----7-----5----5----7----7--3-3-5-5---|
Ab|------------------------------3-3-5-5---|
Db|------------------------------3-3-5-5---|


Gtr. 2

eb|-----------------------------------------|
Bb|-----------------------------------------|
Gb|-----------------------------------------|
Db|88888888-10101010-7777-88888888-33333333-| x3
Ab|88888888-10101010-7777-88888888-33333333-|
Db|88888888-10101010-7777-88888888-33333333-|
   ........ ........ .... ........ ........

4th time

eb|----------------------------------------|
Bb|----------------------------------------|
Gb|----------------------------------------|
Db|88888888-10101010-7777-88888888-3-3-5-5-|
Ab|88888888-10101010-7777-88888888-3-3-5-5-|
Db|88888888-10101010-7777-88888888-3-3-5-5-|
   ........ ........ .... ........



Chorus - Both gtrs. play Intro


Verse 2 - Both gtrs. play Verse 1


Only a different ending:


Both gtrs.

eb|--------------------|
Bb|--------------------|
Gb|--------------------|
Db|3-3-5-5-8-8-10-10~--|
Ab|3-3-5-5-8-8-10-10~--|
Db|3-3-5-5-8-8-10-10~--|


Chorus again


Both gtrs.

eb|-----------------|
Bb|-----------------|
Gb|-----------------|
Db|8~-----88888888--|
Ab|8~-----88888888--|
Db|8~-----88888888--|
          ........


Bridge


Gtr. 1

eb|------------------------------------------------------------------|
Bb|------------------------------------------------------------------|
Gb|1414141414141414141414141414141414141414141414141414141414141414--|
Db|-x-x-x-x-x-x-x-x-x-x-x-x-x-x-x-x-x-x-x-x-x-x-x-x-x-x-x-x-x-x-x-x--|
Ab|1212121212121212121212121212121212121212121212121212121212121212--|
Db|------------------------------------------------------------------|

eb|------------------------------------------------------------17~-----------------------------|
Bb|------------------------------------------------------------18~-----------------------------|
Gb|10--1010--101010-----------------1414141414-----1414141414-------1414141414-----1414141414--|
Db|10--1010--101010-10-1010-101010---x-x-x-x-x------x-x-x-x-x--------x-x-x-x-x------x-x-x-x-x--|
Ab|8---8-8---8-8-8--10-1010-101010--1212121212-----1212121212-------1212121212-----1212121212--|
Db|-----------------10-1010-101010-------------------------------------------------------------|

eb|------------------------------------------------------------17~-----------------------------|
Bb|------------------------------------------------------------18~-----------------------------|
Gb|10--1010--101010-----------------1414141414-----1414141414-------1414141414-----1414141414--|
Db|10--1010--101010-10-1010-101010---x-x-x-x-x------x-x-x-x-x--------x-x-x-x-x------x-x-x-x-x--|
Ab|8---8-8---8-8-8--10-1010-101010--1212121212-----1212121212-------1212121212-----1212121212--|
Db|-----------------10-1010-101010-------------------------------------------------------------|

eb|---------------------------------|
Bb|---------------------------------|
Gb|10--1010--101010-----------------|
Db|10--1010--101010-10-1010-101010--|
Ab|8---8-8---8-8-8--10-1010-101010--|
Db|-----------------10-1010-101010--|


Gtr. 2

eb|-------------------------------------------------------------------|
Bb|-------------------------------------------------------------------|
Gb|77777777777777777777777777777777--10--1010--101010-----------------|
Db|77777777777777777777777777777777--10--1010--101010-10-1010-101010--|
Ab|55555555555555555555555555555555--8---8-8---8-8-8--10-1010-101010--|
Db|---------------------------------------------------10-1010-101010--|

eb|-------------------------------------------------------------------------|
Bb|-------------------------------------------------------------------------|
Gb|77777-----77777-------77777------77777--10--1010--101010-----------------|
Db|77777-----77777-------77777------77777--10--1010--101010-10-1010-101010--|
Ab|55555-----55555-------55555------55555--8---8-8---8-8-8--10-1010-101010--|
Db|---------------------------------------------------------10-1010-101010--|

eb|-------------------------------------------------------------------------|
Bb|-------------------------------------------------------------------------|
Gb|77777-----77777-------77777------77777--10--1010--101010-----------------|
Db|77777-----77777-------77777------77777--10--1010--101010-10-1010-101010--|
Ab|55555-----55555-------55555------55555--8---8-8---8-8-8--10-1010-101010--|
Db|---------------------------------------------------------10-1010-101010--|



Verse 3 - Both gtrs. play Verse 1/2 4 times and end on:

eb|-------|
Bb|-------|
Gb|-------|
Db|--8~---|
Ab|--8~---|
Db|--8~---|


Chorus x2



Outro - Both gtrs.

eb|--------------------------------------------------------------------|
Bb|--------------------------------------------------------------------|
Gb|--------------------------------------------------------------------|
Db|88888888888888888888888888888888-000000000000000000000000-10101010--|
Ab|88888888888888888888888888888888-000000000000000000000000-10101010--|
Db|88888888888888888888888888888888-000000000000000000000000-10101010--|


eb|-------------------------------------------------------------------------|
Bb|-------------------------------------------------------------------------|
Gb|-------------------------------------------------------------------------|
Db|88888888888888888888888888888888-000000000000000000000000-10101010-8~~~--|
Ab|88888888888888888888888888888888-000000000000000000000000-10101010-8~~~--|
Db|88888888888888888888888888888888-000000000000000000000000-10101010-8~~~--|


END


************************************

| /   slide up
| \   slide down
| h   hammer-on
| p   pull-off
| ~   vibrato
| +   harmonic
| x   Mute note
| b   Bend
| pb  Pre-bend
| br  Bend release
| pbr Pre-bend release
| brb Bend release bend

************************************
Tap to rate this tab
# A B C D E F G H I J K L M N O P Q R S T U V W X Y Z