Song name
# A B C D E F G H I J K L M N O P Q R S T U V W X Y Z

Paramore - Whoa tab

This is a beginnger rhythm guitar tab for Whoa by Paramore

I'm not 100% positive on how many times you have to play certain parts. I've 
played along to the song and i for me i think they're pretty okay. feel free to correct me

Tuning-Drop D i tihnk

Intro/Verse-

D-------------------------------------------------------- l
A-------------------------------------------------------- l
D------------------------- -9-9---9-9-9---4---4-4---4-4-4 l        
G---7-7----7-7-7----7-7-7---9-9---9-9-9---4---4-4---4-4-4 l 6x?
B---7-7----7-7-7----7-7-7---7-7---7-7-7---2---2-2---2-2-2 l
E---7-7----7-7-7----7-7-7-------------------------------- l

Chorus-
D---------------------------------------------------------- l
A---------------------------------------------------------- l
D---4------------------------------------------------------ l
G---4---16x?--------2--------------2-2-xxx--2-2-xxx-2-2-xxx l  2x
B---2---------------2----16x?------2-2-xxx--2-2-xxx-2-2-xxx l
E-------------------2--------------2-2-xxx--2-2-xxx-2-2-xxx l

Repeat Verse-4x

Repeat Chorus- 2x

Bridge
D---------------------------------------------------------------- l
A---------------------------------------------------------------- l
D-----------------------------------9-9---9-9-9---4---4-4---4-4-4 l
G---7-7----7-7-7----7-7-7---7-7-----9-9---9-9-9---4---4-4---4-4-4 l  4x?
B---7-7----7-7-7----7-7-7---7-7-----7-7---7-7-7---2---2-2---2-2-2 l
E---7-7----7-7-7----7-7-7---7-7---------------------------------- l

Solo-
D----------------------------------------------------------------- l
A----------------------------------------------------------------- l
D------------------------------------9-9---9-9-9---4---4-4---4-4-4 l
G---7-7----7-7-7----7-7-7---7-7-7----9-9---9-9-9---4---4-4---4-4-4 l  4x?
B---7-7----7-7-7----7-7-7---7-7-7----7-7---7-7-7---2---2-2---2-2-2 l
E---7-7----7-7-7----7-7-7---7-7-7--------------------------------- l

Interlude-
D---------------------------------------------------------- l
A---------------------------------------------------------- l
D--------------9-----9------------------------------------  l
G---7----------9-----9--------------xxx-2-2-xxx-2-2-xxxxx-2 l
B---7----------7-----7--------------xxx-2-2-xxx-2-2-xxxxx-2 l
E---7-------------------------------xxx-2-2-xxx-2-2-xxxxx-2 l

Repeat Chorus- 2x

Repeat Bridge- 4x

Repeat Solo- 2x 
Tap to rate this tab
# A B C D E F G H I J K L M N O P Q R S T U V W X Y Z