Song name
# A B C D E F G H I J K L M N O P Q R S T U V W X Y Z

Paramore - Misguided Ghosts tab

Misguided Ghosts Tab by Paramore
Tuning- Standard

This is my first tab.

I give full credit to the people who made the portions I took from other tabs.
http://www.youtube.com/watch?v=ePY8FWqk_fU
This video shows how Paramore plays this song.
The visibility is great.

Hope you like it. Comment and rate. Suggestions are appreciated.
Thanks.
TangerineWow

-----------------------------------------------------------------------------
                                Lead Guitar
-----------------------------------------------------------------------------

Lead guitar is heard through the right speaker on the album version.

The intro and verse come from this tab. For better reference. I changed it a little to
follow the youtube link video above.
http://tabs.ultimate-guitar.com/p/paramore/brand_new_eyes_album_tab.htm

The bridge comes from this tab. I didn't changes this because it was spot on.
http://tabs.ultimate-guitar.com/p/paramore/misguided_ghosts_ver2_tab.htm

I did however make the chorus for the lead, based on the video at the top.
------
Intro
------

E|-------------------|-------------------|------------------------------------|
B|-------------------|-------------------|------------------------------------|
G|----9---------12---|----9---------12---|------------------------------------|
D|-10---10-10p9----9-|-10---10-10p9----9-|----9----9h10-9-------9---9h10-12-10|2x
A|-------------------|-------------------|-10---10--------10--7---7-----------|
E|-------------------|-------------------|------------------------------------|

-------
Verse
-------

E|-------------------|-------------------|--------------------------------------|
B|-------------------|-------------------|--------------------------------------|
G|----9---------12---|----9---------12---|--------------------------------------|
D|-10---10-10p9----9-|-10---10-10p9----9-|----9----9h10-9-------9---9h10-12-10--|2x
A|-------------------|-------------------|-10---10--------10--7---7-------------|
E|-------------------|-------------------|--------------------------------------|
--------------------------------------------------------------------------------|
Bridge
------------------------------------------------------------------|
E|12----12-12----12-10----10-10----10-8---8-8---8-10---10-7---7---|
B|---13-------13-------12-------12------8-----8------8------8-----|
G|----------------------------------------------------------------|
D|----------------------------------------------------------------|
A|----------------------------------------------------------------|
E|----------------------------------------------------------------|

E|12----12-12----12-10----10-10----10-8---8-8---8-10---10-7~----|
B|---13-------13-------12-------12------8-----8------8----------|
G|--------------------------------------------------------------|
D|--------------------------------------------------------------|
A|--------------------------------------------------------------|
E|--------------------------------------------------------------|

------
Chorus
------

E|--0--0--3--0~~--0--0--x--x-~--0--0--3--0-~~--0--0--x--x--|
B|--5--3--3--1~~--5--3--0--x-~--5--3--3--1-~~--5--3--0--x--|
G|--5--4--3--0~~--5--4--4--5-~--5--4--3--0-~~--5--4--4--5--|
D|--5--5------~~--5--5--4--7-~--5--5-------~---5--5--4--7--|
A|---------------------------~-------------~---------------|
E|------------~~-------------~-------------~~--------------|

-------
Verse
-------

E|-------------------|-------------------|------------------------------------|
B|-------------------|-------------------|------------------------------------|
G|----9---------12---|----9---------12---|------------------------------------|
D|-10---10-10p9----9-|-10---10-10p9----9-|----9----9h10-9-------9---9h10-12-10|2x
A|-------------------|-------------------|-10---10--------10--7---7-----------|
E|-------------------|-------------------|------------------------------------|

-------
Bridge
-------

E|12----12-12----12-10----10-10----10-8---8-8---8-10---10-7---7-|
B|---13-------13-------12-------12------8-----8------8------8---|
G|--------------------------------------------------------------|
D|--------------------------------------------------------------|
A|--------------------------------------------------------------|
E|--------------------------------------------------------------|

E|12----12-12----12-10----10-10----10-8---8-8---8-10---10-7~----|
B|---13-------13-------12-------12------8-----8------8----------|
G|--------------------------------------------------------------|
D|--------------------------------------------------------------|
A|--------------------------------------------------------------|
E|--------------------------------------------------------------|

------
Chorus
-------------------------------------------------------------|
E|--0--0--3--0~~--0--0--x--x-~--0--0--3--0-~~--0--0--x--x----|
B|--5--3--3--1~~--5--3--0--x-~--5--3--3--1-~~--5--3--0--x----|
G|--5--4--3--0~~--5--4--4--5-~--5--4--3--0-~~--5--4--4--5----|
D|--5--5------~~--5--5--4--7-~--5--5-------~---5--5--4--7----|
A|---------------------------~-------------~-----------------|
E|------------~~-------------~-------------~~----------------|

E|--0--0--3--0~~--0--0--x--x-~--0--0--3--0-~~--x--x--x--x---|
B|--5--3--3--1~~--5--3--0--x-~--5--3--3--1-~~--x--x--x--x---|
G|--5--4--3--0~~--5--4--4--5-~--5--4--3--0-~~--5--4--7--9---|
D|--5--5------~~--5--5--4--7-~--5--5-------~---7--5--9--10--|
A|---------------------------~-------------~----------------|
E|------------~~-------------~-------------~~---------------|

-----
Outro
-----

E|-------------------|-------------------|------------------------------------|
B|-------------------|-------------------|------------------------------------|
G|----9---------12---|----9---------12---|------------------------------------|
D|-10---10-10p9----9-|-10---10-10p9----9-|----9----9h10-9-------9---9h10-12-10|
A|-------------------|-------------------|-10---10--------10--7---7-----------|
E|-------------------|-------------------|------------------------------------|



E|-------------------|-------------------|------------------------------------|
B|-------------------|-------------------|------------------------------------|
G|----9---------12---|----9---------12---|------------------------------------|
D|-10---10-10p9----9-|-10---10-10p9----9-|----9----9h10-9-------9---9h10-12---|
A|-------------------|-------------------|-10---10--------10--7---7-----------|
E|-------------------|-------------------|------------------------------------|


-----------------------------------------------------------------------------
                                Rhythm Guitar
-----------------------------------------------------------------------------

The rhythm guitar is heard through the left speaker for the album version.

I changed the 2, 4, and 5th blocked parts to fit the video. I changed the last original
block of the intro into the way it's played in the video.

On the bridge, the first block is from this tab.
http://tabs.ultimate-guitar.com/p/paramore/misguided_ghosts_ver2_tab.htm
The second block from this tab.
http://tabs.ultimate-guitar.com/p/paramore/brand_new_eyes_album_tab.htm
And the last block, I made up myself based off the album version and the video.

For the outro, I changed the last block up a little to make it match the video and album.

=Intro=
(-------------2x---------------------------------------------------------------------|
E|-------------|-------------|------------|------------|-----------------------------|
B|-------------|-------------|------------|------------|-------0---------------------|
G|-------2-----|-------2-----|-------0----|------0-----|---------0-------0-----------|
D|-0h2-----2p0-|-0h2-----2p0-|-0h2----2p0-|-0h2----2p0-|-----------------------------|2x
A|-------------|-------------|------------|------------|-5h7-------7-7p5---7p5-------|
E|-1---1-----1-|-1---1-----1-|-3---3----3-|-3---3----3-|-0---0-------0---------0-----|


=Verse=

(-------------2x---------------------------------------------------------------------|
E|-------------|-------------|------------|------------|-----------------------------|
B|-------------|-------------|------------|------------|-------0---------------------|
G|-------2-----|-------2-----|-------0----|------0-----|---------0-------0-----------|
D|-0h2-----2p0-|-0h2-----2p0-|-0h2----2p0-|-0h2----2p0-|-----------------------------|2x
A|-------------|-------------|------------|------------|-5h7-------7-7p5---7p5-------|
E|-1---1-----1-|-1---1-----1-|-3---3----3-|-3---3----3-|-0---0-------0---------0-----|

Bridge

E|--------------------------------------|------------------|-----3------------|
B|----1---------1---------------1~------|-----1-------1----|-3-----3-1-0----0-|
G|------0---------0-------0--------0----|-2----2---2----2--|-0------------0---|
D|--------2---------2-------2--------2--|--------3-------3-|------------------|2x
A|0-0-------0-0-------3-3-----3--------3|------------------|------------------|
E|--------------------------------------|-1-1------11-----|-3--3------3------|



Chorus

E|-----------------------------------------------------------------------|
B|-5-3-8----------------------------5-3-0--------------------------------|
G|-5-4-7-----9--------9-------9-----5-4-0------2---------2---------2-----|
D|---------10-10----10-10---10-10---7-5-2-0h2----2p0---2---2---2-----2---|
A|--------------------------------------2--------------------------------|
E|-5-3-7-8-------88-------88------8-5-3-0-1---1----1---1----1--1-1-----1-|

E|----------------------------------------|
B|-5-3-8----------------------------5-3-0-|
G|-5-4-7-----9--------9-------9-----5-4-0-|
D|-7-5-9---10-10----10-10---10-10-------2-|
A|--------------------------------------2-|
E|-5-3-7-8-------88-------88------8-5-3-0-|

=Verse=

(-------------2x---------------------------------------------------------------------|
E|-------------|-------------|------------|------------|-----------------------------|
B|-------------|-------------|------------|------------|-------0---------------------|
G|-------2-----|-------2-----|-------0----|------0-----|---------0-------0-----------|
D|-0h2-----2p0-|-0h2-----2p0-|-0h2----2p0-|-0h2----2p0-|-----------------------------|2x
A|-------------|-------------|------------|------------|-5h7-------7-7p5---7p5-------|
E|-1---1-----1-|-1---1-----1-|-3---3----3-|-3---3----3-|-0---0-------0---------0-----|


Bridge

E|--------------------------------------|------------------|-----3------------|
B|----1---------1---------------1~------|-----1-------1----|-3-----3-1-0----0-|
G|------0---------0-------0--------0----|-2----2---2----2--|-0------------0---|
D|--------2---------2-------2--------2--|--------3-------3-|------------------|2x
A|0-0-------0-0-------3-3-----3--------3|------------------|------------------|
E|--------------------------------------|-1-1------11-----|-3--3------3------|


Chorus

E|-----------------------------------------------------------------------|
B|-5-3-8----------------------------5-3-0--------------------------------|
G|-5-4-7-----9--------9-------9-----5-4-0------2---------2---------2-----|
D|---------10-10----10-10---10-10---7-5-2-0h2----2p0---2---2---2-----2---|
A|--------------------------------------2--------------------------------|
E|-5-3-7-8-------88-------88------8-5-3-0-1---1----1---1----1--1-1-----1-|

E|----------------------------------------|
B|-5-3-8----------------------------5-3-0-|
G|-5-4-7-----9--------9-------9-----5-4-0-|
D|-7-5-9---10-10----10-10---10-10-------2-|
A|--------------------------------------2-|
E|-5-3-7-8-------88-------88------8-5-3-0-|


Outro

(-------------2x----------------------------------------------------------------------|
E|-------------|-------------|------------|------------|------------------------------|
B|-------------|-------------|------------|------------|------------------------------|
G|-------2-----|-------2-----|-------0----|------0-----|---------0--------0-----------|
D|-0h2-----2p0-|-0h2-----2p0-|-0h2----2p0-|-0h2----2p0-|------------------------------|2x
A|-------------|-------------|------------|------------|-5h7-------7--5p7---5p7-------|
E|-1---1-----1-|-1---1-----1-|-3---3----3-|-3---3----3-|-0---0------0-0---------0-----|


KEY

h-hammer on
p-pull off
~ -vibrato
X -don't play
Tap to rate this tab
 
# A B C D E F G H I J K L M N O P Q R S T U V W X Y Z