Song name
# A B C D E F G H I J K L M N O P Q R S T U V W X Y Z

Paramore - Decoy Live tab

-------------------------------------------------------------------------------
                                     Decoy - Paramore
-------------------------------------------------------------------------------
Tabbed by: paramore8793
E-mail: sam_parawhore@hotmail.com

Tuning: Half-Step Down


PARAMORE - DECOY THE FINAL RIOT LEAD GUITAR JOSH FARRO, ENJOY! :D
*Listen to left speaker for Joshs part*

 INTRO
e|---------------------------------------------------------------------------|
B|---------------------------------------------------------------------------|
G|-------------------11--11--------------------11-11-------------------------| x6
D|-----6----9-9-------x--x---------4-4---6-6----x--x-------------------------|
A|-----6----9-9-------9--9---------4-4---6-6----9--9-------------------------|
E|-----6----9-9--------------------2-2---4-4---------------------------------|


 VERSE
e|---------------------------------------------------------------------------|
B|---------------------------------------------------------------------------|
G|-----7/10---------------------2----3---0~----------------------------------| x5
D|---------------------------------------------------------------------------|
A|---------------------------------------------------------------------------|
E|---------------------------------------------------------------------------|


 CHORUS  *Im not sure if he strums the G string. You can play it...or not* :P
e|---------------------------------------------------------------------------|
B|---------------------------------------------------------------------------|
G|-----(5)----------------(1)--------------(3)-------------------------------|
D|------6------------------2----------------4--------------------------------|
A|------6--(x16)-----------2--(x8)----------4(x8)----------------------------|
E|------4------------------0----------------2--------------------------------|


 Little intro part..
e|---------------------------------------------------------------------------|
B|---------------------------------------------------------------------------|
G|-------------------11--11---------------------11-11------------------------|  
D|-----6----9-9-------x--x---------4-4---6-6----x--x-------------------------| twice
A|-----6----9-9-------9--9---------4-4---6-6----9--9-------------------------|
E|-----6----9-9--------------------2-2---4-4---------------------------------|


 VERSE
e|---------------------------------------------------------------------------|
B|---------------------------------------------------------------------------|
G|-----7/10---------------------2----3---0~----------------------------------| x5
D|---------------------------------------------------------------------------|
A|---------------------------------------------------------------------------|
E|---------------------------------------------------------------------------|


 CHORUS  *Im not sure if he strums the G string. You can play it...or not* :P
e|---------------------------------------------------------------------------|
B|---------------------------------------------------------------------------|
G|-----(5)----------------(1)--------------(3)-------------------------------|
D|------6------------------2----------------4--------------------------------|
A|------6--(x16)-----------2--(x8)----------4--(x8)--------------------------|
E|------4------------------0----------------2--------------------------------|



 BRIDGE
e|--10-----------10----------------10----------------------------------------|
B|---------------------------------------------------------------------------|
G|-----10------------10----------------10------------------------------------|    x2
D|----------12------------12-------------------------------------------------|
A|---------------------------------------------------------------------------|
E|---------------------------------------------------------------------------|

e|--------6--------6-----6--------6--5---------------------------------------|
B|------6-------6-----------------------6------------------------------------|
G|---7-------7--------7--------------------5---------------------------------|
D|---------------------------------------------------------------------------|
A|---------------------------------------------------------------------------|
E|---------------------------------------------------------------------------|

e|--10-----------10--------------10------------------------------------------|
B|---------------------------------------------------------------------------|
G|-----10------------10-------------10---------------------------------------|    x2
D|-----------12------------12------------------------------------------------|
A|---------------------------------------------------------------------------|
E|---------------------------------------------------------------------------|

e|---------6-------6-----6----------5~---------------------------------------|
B|------6-------6-------------------6~---------------------------------------|
G|---7-------7-------7--------------5~------------------------10~------------|
D|------------------------------------------------------------------8~-------|
A|---------------------------------------------------------------------------|
E|---------------------------------------------------------------------------|


 Then Little intro part..
e|---------------------------------------------------------------------------|
B|---------------------------------------------------------------------------|
G|-------------------11--11---------------------11-11------------------------|  
D|-----6----9-9-------x--x---------4-4---6-6-----x--x------------------------| twice
A|-----6----9-9-------9--9---------4-4---6-6-----9--9------------------------|
E|-----6----9-9--------------------2-2---4-4---------------------------------|


 Next...
e|---------------------------------------------------------------------------|
B|---------------------------------------------------------------------------|
G|-------------------------------10------------------------------------------|
D|--------------------------------x--(lots of times)-------------------------|
A|--------------------------------8------------------------------------------|
E|---------------------------------------------------------------------------|


 (Listen carefully for this part) Josh end up with..
e|---------------------------------------------------------------------------|
B|---------------------------------------------------------------------------|
G---------------------8~------------7~---------------3~----------------------|
D|--------------------x-------------x----------------x-----------------------|
A|--------------------6~------------5~---------------1~----------------------|
E|---------------------------------------------------------------------------|


************************************

| /   slide up
| \   slide down
| h   hammer-on
| p   pull-off
| ~   vibrato
| +   harmonic
| x   Mute note
| b   Bend
| pb  Pre-bend
| br  Bend release
| pbr Pre-bend release
| brb Bend release bend

************************************
Tap to rate this tab
# A B C D E F G H I J K L M N O P Q R S T U V W X Y Z