Song name
# A B C D E F G H I J K L M N O P Q R S T U V W X Y Z

Paramore - Decode Acoustic tab

Song: Decode (Acoustic)
Artist: Paramore
Tab and Chords by: TonalMemory

PLEASE READ!!!!!!!!!
  This tab is for only the rhythm guitar in the song.  Most of the lead 
tabs are good so look them up.  Most tabs I have seen have not been 
accurate for the rhythm.  This one is spot on.
 
Use this video for reference:
http://www.youtube.com/watch?v=SvdILcYExm0&feature=related 
 

Tuning: (Guitar 1) Double Drop D
Tuning of guitar 1 is dropped one step and then tune both E strings down 
two more steps into drop d.

Intro: let ring after each strum

D|-0-----0-----0-----0---|
B|-3-----0-----3-----0---|
G|-0-----0-----4-----2---| 
D|-5-----2-----4-----4---|
A|-5-----2-----2-----4---|
D|-5-----2-----x-----4---|

Verse: (palm mute - listen to song for rhythm)

D|---------------------------------------------------------------------|
B|---------------------------------------------------------------------|
G|---------------------------------------------------------------------| 
D|---------------------------------------------------------------------| (x2)
A|-5555555555555555-2222222222222222-9999999999999999-4444444444444444-|
D|-5555555555555555-2222222222222222-9999999999999999-4444444444444444-|

Pre-Chorus: let ring after each strum

D|-0-----0-----0-----0---|
B|-3-----0-----0-----0---|
G|-0-----0-----11----6---| 
D|-5-----2-----12----7---|
A|-5-----2-----9-----4---|
D|-5-----2-----9-----4---|

Chorus: (just strum each chord approx 16 times...listen to song for rhythm)

D|-0-----0-----0-----0---|
B|-3-----0-----0-----0---|
G|-0-----0-----11----6---| 
D|-5-----2-----12----7---|
A|-5-----2-----9-----4---|
D|-5-----2-----9-----4---|

The Verse, Pre-Chorus, and Chorus just repeats for a second time.


I think I know....

D|------------------------|
B|------------------------|
G|----------4-------------| 
D|-5--7--2--4-45--9-444-7-| (x4)
A|-5--7--2--2-45--9-444-7-|
D|-5--7--2----45--9-444-7-|
Tap to rate this tab
# A B C D E F G H I J K L M N O P Q R S T U V W X Y Z