Song name
# A B C D E F G H I J K L M N O P Q R S T U V W X Y Z

Paramore - Plane Crash Dreams tab

I know Paramore doesn't sing this as a band, I just wanted to make it easier to find. 

Standard Tuning, no capo.

RHYTHM GUITAR:

e|-------------------|--------------------|------------------|
b|-------------------|--------------------|------------------|
g|--4-/6\-4-44444444-|-4-/6\-4-3-33333333-|-4-/6\-4-44444444-|
d|--X--X--X-XXXXXXXX-|-X--X--X-X-XXXXXXXX-|-X--X--X-XXXXXXXX-|
a|--2-/4\-2-22222222-|-2-/4\-2-4-44444444-|-2-/4\-2-22222222-|
E|-------------------|---------2-22222222-|------------------|

e|------------------------|
b|------------------------|
g|--4-/6\-4---------------| (REPEAT THROUGHOUT)
d|--X--X--X-6--6-6-6-4-6--|
a|--2-/4\-2-4--4-4-4-4-4--|
E|----------4--4-4-4-4-4--|

LEAD GUITAR:

e|-------11-------11~--|
b|-----9--------9------|
g|--11-------11--------| (REPEAT THROUGHOUT)
d|---------------------|
a|---------------------|
E|---------------------|
Tap to rate this tab
# A B C D E F G H I J K L M N O P Q R S T U V W X Y Z