Song name
# A B C D E F G H I J K L M N O P Q R S T U V W X Y Z

Paramore - In The Mourning tab

Capo: 3
INTRO:
e|-------------------------------------------------------------------------------|
B|---------1--------1---------0---------0-------0-------0-------0----------------|
G|-----0--------0-------0----------0--------0-------0-------0--------------------|
D|-------2--------2--------0---------2--------2-------2-------2------------------|    (x2)
A|---3-------3--------2---------0---------0-------0-------0----------------------|
E|-------------------------------------------------------------------------------|
        C                             G6                6add9(no5)
VERSE: 1-
e|-----------------------------------------------------------------------------|
B|---------1------1-------0-------0-------0------0-------0---------------------|
G|-----0------0-------0-------0-------0------0-------0-------------------------|
D|-------2------2-------0-------2-------2------2-------2-----------------------|
A|---3------3-------2-------0-------0------0-------0---------------------------|
E|-----------------------------------------------------------------------------|
       C                              G6         6add9(no5)
   "You escape like a runaway train,
    Off the tracks and down again,
    And my heart's beating like a steamboat tuggin'

***Note: Bass note changes here***
e|-----------------------------------------------------------------------|
B|---------1-------0----------0------0------0-------0-------0------------|
G|-----0-------0----------0------0------0-------0-------0----------------|
D|-------2-------0----------0------0------0-------0-------0--------------|    (x2)
A|---3-------2-----------------------------------------------------------|
E|----------------------3-------0-----0-------0--------0-----------------|
       C              G6
       All your burdens,
      On my shoulders

CHORUS: ***Note Bass note changes***
e|-----------------------------------------2------2------2-------2------|
B|---------1-------1-------0------0---3------3-------3------3-----------|
G|-----0-------0-------0------0---------2------2-------2------2---------|
D|-------2-------2-------0------0---0------0-------0------0-------------|
A|---3-------3-------2------2-------------------------------------------|
E|----------------------------------------------------------------------|
      C                 6add9(no5)                        D
   In The Mourning I'll rise,
   In The Mourning, I'll let you die

e|---------------------------------------------------------------------------|
B|---------1-------1------0------0-------1-------1------1-------1------------|
G|-----0-------0------0------0-------0-------0------0-------0----------------|
D|-------2-------2------0------0-------2-------2------2-------2--------------|
A|---3-------3------2------2-------0-------0---------------------------------|
E|-------------------------------------------------3-------3-----------------|

     In the Mourning... All my,

e|----------------------------------------3-------3------3------3-------------|
B|---------1------1-------0-------0-------------------------------------------|
G|-----0------0-------0-------0------0-------0------0------0------------------|
D|-------2------2-------0-------0------0-------0------0------0----------------|
A|---3------3-------2-------2-------------------------------------------------|
E|----------------------------------3-------3------3------3-------------------|
                  Worries.

VERSE: 2- Same chords and finger picking pattern as above.
       (Lyrics) And now there's nothing but time that's wasting
                   And words that have no backbone.
                   And now it seems like the whole world's waiting.
                   Can you hear the echoes fading?
CHORUS

            In the mourning I'll rise
            In the mourning I'll let you die
            In the mourning All my
            Sorries

BRIDGE:
e|------------------------------------------3------3------3------3-----------------|
B|---------0-------0-------0-------0-----------------------------------------------|
G|-----0-------0-------0-------0-------0------0------0------0----------------------|
D|-------2-------2-------0-------0-------0------0------0------0--------------------|
A|---2-------2---------------------------------------------------------------------|
E|-------------------2-------2--------3------3------3------3-----------------------|

      And it takes all my strength not to dig you up

e|----------------------------------------2-------2-------2-------2-----------|
B|---------1------1------0------0----3-------3-------3-------3----------------|
G|-----0------0------0------0----------2-------2-------2-------2--------------|
D|-------2------2------0------0----0-------0-------0-------0------------------|
A|---3------3------2------2---------------------------------------------------|
E|----------------------------------------------------------------------------|

     From the ground in which you lay, the biggest part of me.

e|---------------------------------------------------------------------------|
B|---------1-------1------0------0-------1-------1------1-------1------------|
G|-----0-------0------0------0-------0-------0------0-------0----------------|
D|-------2-------2------0------0-------2-------2------2-------2--------------|
A|---3-------3------2------2-------0-------0---------------------------------|
E|-------------------------------------------------3-------3-----------------|

      You were the greatest thing and now you're just a memory to-

e|----------------------------------------3-------3------3------3-------------|
B|---------1------1-------0-------0-------------------------------------------|
G|-----0------0-------0-------0------0-------0------0------0------------------|
D|-------2------2-------0-------0------0-------0------0------0----------------|
A|---3------3-------2-------2-------------------------------------------------|
E|----------------------------------3-------3------3------3-------------------|
           To let go of.                                      G

CHORUS (x2)
        I usually strum the last note of the song. The "G".
Tap to rate this tab
# A B C D E F G H I J K L M N O P Q R S T U V W X Y Z