Song name
# A B C D E F G H I J K L M N O P Q R S T U V W X Y Z

Paramore - Now tab

-------------------------------------------------------------------------------
                           Paramore - Now
-------------------------------------------------------------------------------

Tabbed by: paramore8793
E-mail: sam_parawhore@hotmail.com

Tuning: Half-Step Down

        This song is called "Now" from Paramore's 4th Album "Paramore" 
**'Paramore'in stores on April 9th 201**        

*Gospel Chorus

      e|-----8/9-----8h9p8---------------8/9-----8h9p8-------------------|
      B|----------------------11~---------------------------11~----------|
      G|-----------------------------------------------------------------| (x2)
      D|-----------------------------------------------------------------|
      A|-----------------------------------------------------------------|
      E|-----------------------------------------------------------------|


e|--------------11-------------13~-------------------------------------------|
B|------11-14--------14-13-14------------------------------------------------|
G|---------------------------------------------------------------------------|
D|---------------------------------------------------------------------------|
A|---------------------------------------------------------------------------|
E|---------------------------------------------------------------------------|

e|---------------------------------------------------------------------------|
B|---------------------------------------------------------------------------|
G|-----5~----6~-------8/10-----------(5~)------------------------------------|
D|-----x-----x--------x-x------------(x-)------------------------------------|
A|-----3~----4~-------6/8~-----------(3~-)-----------------------------------|
E|---------------------------------------------------------------------------|

*Hayley (Ah ah ahh..)
      
      e|-------------11---------------11---------------------------------|
      B|----11--14----------14-11-14------14~----------------------------|       
      G|-----------------------------------------------------------------|        
      D|-----------------------------------------------------------------|            
      A|-----------------------------------------------------------------|         
      E|-----------------------------------------------------------------|


Wait for the rest.(January 22th)
PLEASE COMMENT AND RATE,ANY QUESTIONS E-MAIL ME. THANKS FOR WATCHING MY TAB:)

************************************

| /   slide up
| \   slide down
| h   hammer-on
| p   pull-off
| ~   vibrato
| +   harmonic
| x   Mute note
| b   Bend
| pb  Pre-bend
| br  Bend release
| pbr Pre-bend release
| brb Bend release bend

************************************
Tap to rate this tab
 
# A B C D E F G H I J K L M N O P Q R S T U V W X Y Z