Song name
# A B C D E F G H I J K L M N O P Q R S T U V W X Y Z

Paramore - Now tab

-------------------------------------------------------------------------------
                             Paramore - Now
-------------------------------------------------------------------------------
Tabbed by: paramore8793
E-mail: sam_parawhore@hotmail.com

Tuning: Drop C#
                       d#|----|
                       a#|----|
                       f#|----|
                       C#|----|
                       G#|----|
                       C#|----|

This the Tab for Paramore's new song 'Now'. The lyrics are at the end of the tab.
Hope it helps(:


*INTRO & VERSE  **Don't try to take this from me...
d#|---------------------------------------------------------------------|
a#|---------------------------------------------------------------------|
f#|---------------------------------------------------------------------|
C#|--5/14-14(x5)--5/14-14(x5)-----5/10(x5)---5/12-12--10-10--(5)--------|
G#|--5/14-14(x5)--5/14-14(x5)-----5/10(x5)---5/12-12--10-10--(5)--------|
C#|--5/14-14(x5)--5/14-14(x5)-----5/10(x5)---5/12-12--10-10--(5)--------|


*BRIDGE Bend up the last note (listen to the song for it) **Lost the battle...
d#|---------------------------------------------------------------------|
a#|---------------------------------------------------------------------|
f#|--5(x16)/6(x16)/8-8-8-8/10(x24)--------------------------------------|
C#|---------------------------------------------------------------------|
G#|---------------------------------------------------------------------|
C#|---------------------------------------------------------------------|

d#|---------------------------------------------------------------------|
a#|--13(x16)/14(x16)/16(x4)/18(x24)-------------------------------------|
f#|---------------------------------------------------------------------|
C#|---------------------------------------------------------------------|
G#|---------------------------------------------------------------------|
C#|---------------------------------------------------------------------|


*CHORUS  **If there's a future we want it...
d#|---------------------------------------------------------------------|
a#|---------------------------------------------------------------------|
f#|---------------------------------------------------------------------|(x2)
C#|--10(x16)----7(x16)---10(x16)---7(x8)-----3(x8)----------------------|
G#|--10(x16)----7(x16)---10(x16)---7(x8)-----3(x8)----------------------|
C#|--10(x16)----7(x16)---10(x16)---7(x8)-----3(x8)----------------------|


*BRIDGE2  **There's a time and a place to die...
d#|-----------11--13-------------11--13-(14br13)------------------------|
a#|---11--14-------------11--14-----------------------------------------|
f#|---------------------------------------------------------------------|
C#|---------------------------------------------------------------------|
G#|---------------------------------------------------------------------|
C#|---------------------------------------------------------------------|

d#|-----------11---------------11~--------------------------------------|
a#|--11--14--------14-13--14--------------------------------------------|
f#|---------------------------------------------------------------------|
C#|---------------------------------------------------------------------|
G#|---------------------------------------------------------------------|
C#|---------------------------------------------------------------------|

d#|-----------11--13-------------11--13-(14br13)------------------------|
a#|---11--14-------------11--14-----------------------------------------|
f#|---------------------------------------------------------------------|
C#|---------------------------------------------------------------------|
G#|---------------------------------------------------------------------|
C#|---------------------------------------------------------------------|

d#|------------11---------------13~-------------------------------------|
a#|---11--14--------14--13--14------------------------------------------|
f#|---------------------------------------------------------------------|
C#|---------------------------------------------------------------------|
G#|---------------------------------------------------------------------|
C#|---------------------------------------------------------------------|


*BREAKING DOWN? Bend up last note a lil' bit before last chorus
d#|---------------------------------------------------------------------|
a#|---------------------------------------------------------------------|
f#|--5~--6~---8/10~-----------------------------------------------------|
C#|--x---x----x/x----(x2)-----------------------------------------------|
G#|--3~--4~---6/8~------------------------------------------------------|
C#|---------------------------------------------------------------------|


*CHORUS  **If there's a future we want it...
d#|---------------------------------------------------------------------|
a#|---------------------------------------------------------------------|
f#|---------------------------------------------------------------------|(x2)
C#|--10(x16)----7(x16)---10(x16)---7(x8)-----3(x8)----------------------|
G#|--10(x16)----7(x16)---10(x16)---7(x8)-----3(x8)----------------------|
C#|--10(x16)----7(x16)---10(x16)---7(x8)-----3(x8)----------------------|

d#|---------------------------------------------------------------------|
a#|---------------------------------------------------------------------|
f#|---------------------------------------------------------------------|
C#|-----7(x8)----3(x8)----7(x8)-----3(x8)----7-7-7-7/3-3-3-3------------|
G#|-----7(x8)----3(x8)----7(x8)-----3(x8)----7-7-7-7/3-3-3-3------------|
C#|-----7(x8)----3(x8)----7(x8)-----3(x8)----7-7-7-7/3-3-3-3------------| 

*Lyrics*
Don't try to take this from me
Don't try to take this from me
Now ow ow ow ow ow ow owww
Don't try to take this from me
Don't try to take this from me
Now ow ow ow ow ow ow owww

*VERSE
Feels like I'm waking from the dead
and everyone's been waiting on me
At least now I never have to wonder
what it's like to sleep a year away.

But we were indestructible,
I thought we could brave it all...
I never thought what could take me out was hiding down below

*PRE-CHORUS
Lost the battle...win the war
Bringing my sinking ship back to the shore
Starting over..head back in!
There's a time and a place to die but this ain't it!

*CHORUS
If there's a future we want it
Now ow ow ow ow ow ow owww
If there's a future we want it
Now ow ow ow ow ow ow owww
If there's a future we want it
Now ow ow ow ow ow ow owww
If there's a future we want it
Now ow ow ow ow ow ow owww

Don't try to take this from me
Don't try to take this from me
Now ow ow ow ow ow ow owww
Don't try to take this from me
Don't try to take this from me
Now ow ow ow ow ow ow owww

*VERSE
Wish I could find a crystal ball for the days I feel completely worthless
You know I'd use it all for good, I would not take it for granted!
Inside a house of memories for the days I don't feel anything
At least they'll remember not to make the same mistakes again

*PRE-CHORUS
Lost the battle... win the war
Bringing my sinking ship back to the shore
Starting over...head back in!
There's a time and a place to die but this ain't it!
If there's a future we want it
Now ow ow ow ow ow ow owww

*CHORUS
If there's a future we want it
Now ow ow ow ow ow ow owww
If there's a future we want it
Now ow ow ow ow ow ow owww
If there's a future we want it
Now ow ow ow ow ow ow owww

*BREAKING DOWN?
There's a time and a place to die..
There's a time and a place to die.. and this ain't it!
There's a time and a place to die.. and this ain't it!

THIS AIN'T IT! THIS AIN'T IT!
There's a time and a place to die..
There's a time and a place to die.. and this ain't it!

*LAST CHORUS
If there's a future we want it
Now ow ow ow ow ow ow owww
If there's a future we want it
Now ow ow ow ow ow ow owww
If there's a future we want it
Now ow ow ow ow ow ow owww

If there's a future we want it

Now ow ow ow ow ow ow owww

Now ow ow ow ow ow ow owww

Now ow ow ow ow ow ow owww 


Thanks for watching my tab, Have fun!

************************************

| /   slide up
| \   slide down
| h   hammer-on
| p   pull-off
| ~   vibrato
| +   harmonic
| x   Mute note
| b   Bend
| pb  Pre-bend
| br  Bend release
| pbr Pre-bend release
| brb Bend release bend

************************************
Tap to rate this tab
 
# A B C D E F G H I J K L M N O P Q R S T U V W X Y Z