Song name
# A B C D E F G H I J K L M N O P Q R S T U V W X Y Z

Paramore - Now tab

Here is the tab of "Now" by Paramore. Send me a message if you have some problems: 
arturo.forero97@gmail.com
Check my YouTube channel: http://www.youtube.com/user/ArturoForeroCR7?feature=mhee
Follow me on Twitter: https://twitter.com/arturosoysho

\ = slide down
h = hammer-on
p = pull-off
~ = vibrato

Intro:
e|--------------------------------------------------------------------|
B|--------------------------------------------------------------------|
G|--------------------------------------------------------------------|
D|--------------------------------------------------------------------|
A|--2222----2222----3333----5533---2222----2222----3333----5533-------|
E|-3----3333----3335----5555----553----3333----3335----5555----55-----|

Verse 1:
e|--------------------------------------------------------------------|
B|--------------------------------------------------------------------|
G|--------------------------------------------------------------------|
D|--------------------------------------------------------------------|
A|--2222----2222----3333----5533---2222----2222----3333----5533-------|
E|-3----3333----3335----5555----553----3333----3335----5555----55-----|

e|--------------------------------------------------------------------|
B|--------------------------------------------------------------------|
G|--------------------------------------------------------------------|
D|--------------------------------------------------------------------|
A|--2222----2222----3333----5533---2222----2222----3333----5533-------|
E|-3----3333----3335----5555----553----3333----3335----5555----55-----|

Pre-chorus:
e|--------------------------------------------------------------------|
B|---------------------------------55555555----5555h666666666666p5555-|
G|-44444444----44445555555555557755--------5555-----------------------|
D|---------5555-------------------------------------------------------|
A|--------------------------------------------------------------------|
E|--------------------------------------------------------------------|

e|--------------------------------------------------------------------|
B|-----12121212------121213131313131313131313131315151313-------------|
G|-------------121212-------------------------------------------------|
D|--------------------------------------------------------------------|
A|--------------------------------------------------------------------|
E|--------------------------------------------------------------------|

e|-1212121212121212--------12121212h131313131313131313131313p12121212-|
B|-----------------13131313-------------------------------------------|
G|--------------------------------------------------------------------|
D|--------------------------------------------------------------------|
A|--------------------------------------------------------------------|
E|--------------------------------------------------------------------|

Chorus:
e|--------------------------------------------------------------------|
B|--------------------------------------------------------------------|
G|-5555555555555555----------------5555555555555555-------------------|
D|-5555555555555555777777777777777755555555555555557777777733333333---|
A|-3333333333333333777777777777777733333333333333337777777733333333---|
E|-----------------5555555555555555----------------5555555511111111---|

e|--------------------------------------------------------------------|
B|--------------------------------------------------------------------|
G|-5555555555555555----------------5555555555555555-------------------|
D|-5555555555555555777777777777777755555555555555557777777733333333---|
A|-3333333333333333777777777777777733333333333333337777777733333333---|
E|-----------------5555555555555555----------------5555555511111111---|

Post-chorus 1:
e|---------------------------------------------------0~---------------|
B|---------------------------------------------------0~---------------|
G|---------------------------------------------------0~---------------|
D|--------------------------------------------------------------------|
A|--2222----2222----3333----5533---2222----22~------------------------|
E|-3----3333----3335----5555----553----3333---------------------------|

Verse 2:
e|--------------------------------------------------------------------|
B|--------------------------------------------------------------------|
G|--------------------------------------------------------------------|
D|--------------------------------------------------------------------|
A|--2222----2222------------2222----2222----3333----5533--------------|
E|-3----3333----333--------3----3333----3335----5555----55------------|

e|--------------------------------------------------------------------|
B|--------------------------------------------------------------------|
G|--------------------------------------------------------------------|
D|--------------------------------------------------------------------|
A|--2222----2222----3333----5533---2222----2222----3333----5533-------|
E|-3----3333----3335----5555----553----3333----3335----5555----55-----|

Pre-chorus:
e|--------------------------------------------------------------------|
B|---------------------------------55555555----5555h666666666666p5555-|
G|-44444444----44445555555555557755--------5555-----------------------|
D|---------5555-------------------------------------------------------|
A|--------------------------------------------------------------------|
E|--------------------------------------------------------------------|

e|--------------------------------------------------------------------|
B|-----12121212------121213131313131313131313131315151313-------------|
G|-------------121212-------------------------------------------------|
D|--------------------------------------------------------------------|
A|--------------------------------------------------------------------|
E|--------------------------------------------------------------------|

e|-1212121212121212--------12121212h131313131313131313131313p12121212-|
B|-----------------13131313-------------------------------------------|
G|--------------------------------------------------------------------|
D|--------------------------------------------------------------------|
A|--------------------------------------------------------------------|
E|--------------------------------------------------------------------|

Chorus:
e|--------------------------------------------------------------------|
B|--------------------------------------------------------------------|
G|-5555555555555555----------------5555555555555555-------------------|
D|-5555555555555555777777777777777755555555555555557777777733333333---|
A|-3333333333333333777777777777777733333333333333337777777733333333---|
E|-----------------5555555555555555----------------5555555511111111---|

e|--------------------------------------------------------------------|
B|--------------------------------------------------------------------|
G|-5555555555555555----------------5555555555555555-------------------|
D|-5555555555555555777777777777777755555555555555557777777733333333---|
A|-3333333333333333777777777777777733333333333333337777777733333333---|
E|-----------------5555555555555555----------------5555555511111111---|

Post-chorus 2:
e|---------------81012----881012~------------88108h7810~--------------|
B|-----------1010-----1010---------------1010-------------------------|
G|--------------------------------------------------------------------|
D|--------------------------------------------------------------------|
A|--------------------------------------------------------------------|
E|-3~-----------------------------------------------------------------|

e|-------------81012----881012~------------88108h7812~----------------|
B|---------1010-----1010---------------1010---------------------------|
G|--------------------------------------------------------------------|
D|--------------------------------------------------------------------|
A|--------------------------------------------------------------------|
E|--------------------------------------------------------------------|

Bridge:
e|--------------------------------------------------------------------|
B|---------------------------------55555555----5555h666666666666p5555-|
G|-44444444----44445555555555557755--------5555-----------------------|
D|---------5555-------------------------------------------------------|
A|--------------------------------------------------------------------|
E|--------------------------------------------------------------------|

e|--------------------------------------------------------------------|
B|-----12121212------121213131313131313131313131315151313-------------|
G|-------------121212-------------------------------------------------|
D|--------------------------------------------------------------------|
A|--------------------------------------------------------------------|
E|--------------------------------------------------------------------|

e|-1212121212121212--------12121212h131313131313131313131313p12121212-|
B|-----------------13131313-------------------------------------------|
G|--------------------------------------------------------------------|
D|--------------------------------------------------------------------|
A|--------------------------------------------------------------------|
E|--------------------------------------------------------------------|

Chorus:
e|--------------------------------------------------------------------|
B|--------------------------------------------------------------------|
G|-5555555555555555----------------5555555555555555-------------------|
D|-5555555555555555777777777777777755555555555555557777777733333333---|
A|-3333333333333333777777777777777733333333333333337777777733333333---|
E|-----------------5555555555555555----------------5555555511111111---|

e|--------------------------------------------------------------------|
B|--------------------------------------------------------------------|
G|-5555555555555555----------------5555555555555555-------------------|
D|-5555555555555555777777777777777755555555555555557777777733333333---|
A|-3333333333333333777777777777777733333333333333337777777733333333---|
E|-----------------5555555555555555----------------5555555511111111---|

Outro:
e|--------------------------------------------------------------------|
B|--------------------------------------------------------------------|
G|--------------------------------------------------------------------|
D|-77777777333333337-7-7-73-3-3-3\------------------------------------|
A|-77777777333333337-7-7-73-3-3-3\------------------------------------|
E|-55555555111111115-5-5-51-1-1-1\------------------------------------|

Enjoy it!
Tap to rate this tab
 
# A B C D E F G H I J K L M N O P Q R S T U V W X Y Z