Song name
# A B C D E F G H I J K L M N O P Q R S T U V W X Y Z

Paramore - Now tab

PARAMORE
NOW
Tabbed by: Claire
Tuning: standard
Hi guys, here's the tab for the brand new single by Paramore!
That's how I play it, if you have any suggestion please comment and rate! ROCK ON!

Intro e Verse: x6
|----------------------|---------------------|------------------------|
|----------------------|---------------------|------------------------|
|----------------------|---------------------|------------------------|
|--(7)/(14141414)(555)-|-(7)/(14141414)(555)-|------------------------|
|--(7)/(14141414)(555)-|-(7)/(14141414)(555)-|-------------5555-------|
|---5-/-12121212--333--|--5-/-12121212--333--|-5-8888-5555------8855--|

Pre Chorus: x2
Guitar 1
|-------------------|
|-------------------|
|--4--5--7/9--9br10-|
|--x--x--x/x--xbrx--|
|--2--3--5/7--7br8--|
|-------------------|

Guitar 2
|7777777777775577888888888888101088-|
|-----------------------------------|
|-----------------------------------|
|-----------------------------------|
|-----------------------------------|
|-----------------------------------|
(continue..)
12121212121212121212121210101212br131313131313131313131313-|
-----------------------------------------------------------|
-----------------------------------------------------------|
-----------------------------------------------------------|
-----------------------------------------------------------|
-----------------------------------------------------------|

Chorus: x2
|------------------|
|------------------|
|--5------5--------|
|--5--7---5--7--3--|
|--3--7---3--7--3--|
|-----5------5--1--|

Play again:
Intro + verse (check out the pauses)
Pre chorus
Chorus

Bridge:
|-------88101012----881012--|-------881010-87810--|
|--1010----------10---------|--1010---------------|
|---------------------------|---------------------|
|---------------------------|---------------------|
|---------------------------|---------------------|
|---------------------------|---------------------|

Play again:
Pre chorus
Chorus (last time play x2 -> 57700 and 13300! )
Tap to rate this tab
 
# A B C D E F G H I J K L M N O P Q R S T U V W X Y Z