Song name
# A B C D E F G H I J K L M N O P Q R S T U V W X Y Z

Paramore - Now tab

Standard tuning [EADGBe]

NOTE: I'm going to use * as a symbol for string-bending
 cause I don't know what the real one is xD


Verse

e||-------------------------------------|-----------------------------------|
B||-------------------------------------|-----------------------------------|
G||.------------------------------------|-----------------------------------|
D||.------------------------------------|-----------------------------------|
A||-------------------------------------|-----------------------------------|
E||--3/12---12---12---12---3---3---3----|3/12---12---12---12--3---3---3-----|



e|----------------------------------|--------------------------------------||
B|----------------------------------|--------------------------------------||
G|----------------------------------|-------------------------------------.||
D|----------------------------------|-------------------------------------.||
A|----------------------------------|--------------------------------------||
E|-----5/8---8---8---8---5---5---5--|-5/10---10---10---10---8---8---8/3----||

Repeat


Pre-chorus

e|--------------------------------------------------------------------------|
B|--0x16---1x12---3-3-1-1---5x16----5x16*-----------------------------------|
G|--------------------------------------------------------------------------|
D|--------------------------------------------------------------------------|
A|--------------------------------------------------------------------------|
E|--------------------------------------------------------------------------|


e|-----7x16----8x12----10-10-8-8------12x16-----12x16-----------------------|
B|--------------------------------------------------------------------------|
G|--------------------------------------------------------------------------|
D|--------------------------------------------------------------------------|
A|--------------------------------------------------------------------------|
E|--------------------------------------------------------------------------|


Chorus

e||------------------------------------------------------------------------||
B||------------------------------------------------------------------------||
G||.---5-----------------------5------------------------------------------.||
D||.---5-----------7-----------5----------7----------3--------------------.||
A||----3---x16-----7---x16-----3---x16----7---x8-----3---x8----------------||
E||----3-----------5-----------3----------5----------1---------------------||

Repeat



I'll put in the lyrics when I find the time! 
Tap to rate this tab
# A B C D E F G H I J K L M N O P Q R S T U V W X Y Z